  0
SECTION
  2
HEADER
  9
$ACADVER
  1
AC1015
  9
$ACADMAINTVER
 70
    13
  9
$DWGCODEPAGE
  3
ANSI_1252
  9
$INSBASE
 10
0.0
 20
0.0
 30
0.0
  9
$EXTMIN
 10
-188.2182
 20
-188.2182
 30
0.0
  9
$EXTMAX
 10
188.2182
 20
2138.398034429644
 30
0.0
  9
$LIMMIN
 10
0.0
 20
0.0
  9
$LIMMAX
 10
12.0
 20
9.0
  9
$ORTHOMODE
 70
     0
  9
$REGENMODE
 70
     1
  9
$FILLMODE
 70
     1
  9
$QTEXTMODE
 70
     0
  9
$MIRRTEXT
 70
     1
  9
$LTSCALE
 40
1.0
  9
$ATTMODE
 70
     1
  9
$TEXTSIZE
 40
8.0
  9
$TRACEWID
 40
0.05
  9
$TEXTSTYLE
  7
Standard
  9
$CLAYER
  8
0
  9
$CELTYPE
  6
Continuous
  9
$CECOLOR
 62
   256
  9
$CELTSCALE
 40
1.0
  9
$DISPSILH
 70
     0
  9
$DIMSCALE
 40
1.0
  9
$DIMASZ
 40
0.18
  9
$DIMEXO
 40
0.0625
  9
$DIMDLI
 40
0.38
  9
$DIMRND
 40
0.0
  9
$DIMDLE
 40
0.0
  9
$DIMEXE
 40
0.18
  9
$DIMTP
 40
0.0
  9
$DIMTM
 40
0.0
  9
$DIMTXT
 40
0.18
  9
$DIMCEN
 40
0.09
  9
$DIMTSZ
 40
0.0
  9
$DIMTOL
 70
     0
  9
$DIMLIM
 70
     0
  9
$DIMTIH
 70
     1
  9
$DIMTOH
 70
     1
  9
$DIMSE1
 70
     0
  9
$DIMSE2
 70
     0
  9
$DIMTAD
 70
     0
  9
$DIMZIN
 70
     0
  9
$DIMBLK
  1

  9
$DIMASO
 70
     1
  9
$DIMSHO
 70
     1
  9
$DIMPOST
  1

  9
$DIMAPOST
  1

  9
$DIMALT
 70
     0
  9
$DIMALTD
 70
     2
  9
$DIMALTF
 40
25.4
  9
$DIMLFAC
 40
1.0
  9
$DIMTOFL
 70
     0
  9
$DIMTVP
 40
0.0
  9
$DIMTIX
 70
     0
  9
$DIMSOXD
 70
     0
  9
$DIMSAH
 70
     0
  9
$DIMBLK1
  1

  9
$DIMBLK2
  1

  9
$DIMSTYLE
  2
Standard
  9
$DIMCLRD
 70
     0
  9
$DIMCLRE
 70
     0
  9
$DIMCLRT
 70
     0
  9
$DIMTFAC
 40
1.0
  9
$DIMGAP
 40
0.09
  9
$DIMJUST
 70
     0
  9
$DIMSD1
 70
     0
  9
$DIMSD2
 70
     0
  9
$DIMTOLJ
 70
     1
  9
$DIMTZIN
 70
     0
  9
$DIMALTZ
 70
     0
  9
$DIMALTTZ
 70
     0
  9
$DIMUPT
 70
     0
  9
$DIMDEC
 70
     4
  9
$DIMTDEC
 70
     4
  9
$DIMALTU
 70
     2
  9
$DIMALTTD
 70
     2
  9
$DIMTXSTY
  7
Standard
  9
$DIMAUNIT
 70
     0
  9
$DIMADEC
 70
     0
  9
$DIMALTRND
 40
0.0
  9
$DIMAZIN
 70
     0
  9
$DIMDSEP
 70
    46
  9
$DIMATFIT
 70
     3
  9
$DIMFRAC
 70
     0
  9
$DIMLDRBLK
  1

  9
$DIMLUNIT
 70
     2
  9
$DIMLWD
 70
    -2
  9
$DIMLWE
 70
    -2
  9
$DIMTMOVE
 70
     0
  9
$LUNITS
 70
     2
  9
$LUPREC
 70
     4
  9
$SKETCHINC
 40
0.1
  9
$FILLETRAD
 40
0.0
  9
$AUNITS
 70
     0
  9
$AUPREC
 70
     0
  9
$MENU
  1
.
  9
$ELEVATION
 40
0.0
  9
$PELEVATION
 40
0.0
  9
$THICKNESS
 40
0.0
  9
$LIMCHECK
 70
     0
  9
$CHAMFERA
 40
0.0
  9
$CHAMFERB
 40
0.0
  9
$CHAMFERC
 40
0.0
  9
$CHAMFERD
 40
0.0
  9
$SKPOLY
 70
     0
  9
$TDCREATE
 40
2459846.918293252
  9
$TDUCREATE
 40
2459846.834959919
  9
$TDUPDATE
 40
2459846.929483333
  9
$TDUUPDATE
 40
2459846.846150000
  9
$TDINDWG
 40
0.0111901852
  9
$TDUSRTIMER
 40
0.0111901852
  9
$USRTIMER
 70
     1
  9
$ANGBASE
 50
0.0
  9
$ANGDIR
 70
     0
  9
$PDMODE
 70
     0
  9
$PDSIZE
 40
0.0
  9
$PLINEWID
 40
0.0
  9
$SPLFRAME
 70
     0
  9
$SPLINETYPE
 70
     6
  9
$SPLINESEGS
 70
     8
  9
$HANDSEED
  5
75F
  9
$SURFTAB1
 70
     6
  9
$SURFTAB2
 70
     6
  9
$SURFTYPE
 70
     6
  9
$SURFU
 70
     6
  9
$SURFV
 70
     6
  9
$UCSBASE
  2

  9
$UCSNAME
  2

  9
$UCSORG
 10
0.0
 20
0.0
 30
0.0
  9
$UCSXDIR
 10
1.0
 20
0.0
 30
0.0
  9
$UCSYDIR
 10
0.0
 20
1.0
 30
0.0
  9
$UCSORTHOREF
  2

  9
$UCSORTHOVIEW
 70
     0
  9
$UCSORGTOP
 10
0.0
 20
0.0
 30
0.0
  9
$UCSORGBOTTOM
 10
0.0
 20
0.0
 30
0.0
  9
$UCSORGLEFT
 10
0.0
 20
0.0
 30
0.0
  9
$UCSORGRIGHT
 10
0.0
 20
0.0
 30
0.0
  9
$UCSORGFRONT
 10
0.0
 20
0.0
 30
0.0
  9
$UCSORGBACK
 10
0.0
 20
0.0
 30
0.0
  9
$PUCSBASE
  2

  9
$PUCSNAME
  2

  9
$PUCSORG
 10
0.0
 20
0.0
 30
0.0
  9
$PUCSXDIR
 10
1.0
 20
0.0
 30
0.0
  9
$PUCSYDIR
 10
0.0
 20
1.0
 30
0.0
  9
$PUCSORTHOREF
  2

  9
$PUCSORTHOVIEW
 70
     0
  9
$PUCSORGTOP
 10
0.0
 20
0.0
 30
0.0
  9
$PUCSORGBOTTOM
 10
0.0
 20
0.0
 30
0.0
  9
$PUCSORGLEFT
 10
0.0
 20
0.0
 30
0.0
  9
$PUCSORGRIGHT
 10
0.0
 20
0.0
 30
0.0
  9
$PUCSORGFRONT
 10
0.0
 20
0.0
 30
0.0
  9
$PUCSORGBACK
 10
0.0
 20
0.0
 30
0.0
  9
$USERI1
 70
     0
  9
$USERI2
 70
     0
  9
$USERI3
 70
     0
  9
$USERI4
 70
     0
  9
$USERI5
 70
     0
  9
$USERR1
 40
0.0
  9
$USERR2
 40
0.0
  9
$USERR3
 40
0.0
  9
$USERR4
 40
0.0
  9
$USERR5
 40
0.0
  9
$WORLDVIEW
 70
     1
  9
$SHADEDGE
 70
     3
  9
$SHADEDIF
 70
    70
  9
$TILEMODE
 70
     1
  9
$MAXACTVP
 70
    64
  9
$PINSBASE
 10
0.0
 20
0.0
 30
0.0
  9
$PLIMCHECK
 70
     0
  9
$PEXTMIN
 10
1.000000000000000E+20
 20
1.000000000000000E+20
 30
1.000000000000000E+20
  9
$PEXTMAX
 10
-1.000000000000000E+20
 20
-1.000000000000000E+20
 30
-1.000000000000000E+20
  9
$PLIMMIN
 10
0.0
 20
0.0
  9
$PLIMMAX
 10
12.0
 20
9.0
  9
$UNITMODE
 70
     0
  9
$VISRETAIN
 70
     1
  9
$PLINEGEN
 70
     0
  9
$PSLTSCALE
 70
     1
  9
$TREEDEPTH
 70
  3020
  9
$CMLSTYLE
  2
Standard
  9
$CMLJUST
 70
     0
  9
$CMLSCALE
 40
1.0
  9
$PROXYGRAPHICS
 70
     1
  9
$MEASUREMENT
 70
     0
  9
$CELWEIGHT
370
    -1
  9
$ENDCAPS
280
     0
  9
$JOINSTYLE
280
     0
  9
$LWDISPLAY
290
     0
  9
$INSUNITS
 70
     0
  9
$HYPERLINKBASE
  1

  9
$STYLESHEET
  1

  9
$XEDIT
290
     1
  9
$CEPSNTYPE
380
     0
  9
$PSTYLEMODE
290
     1
  9
$FINGERPRINTGUID
  2
{CE3B6349-0441-42BB-BB0F-30D342944E62}
  9
$VERSIONGUID
  2
{0AC1D9B8-1FC3-4F44-841B-EE9288CC35B5}
  9
$EXTNAMES
290
     1
  9
$PSVPSCALE
 40
0.0
  9
$OLESTARTUP
290
     0
  0
ENDSEC
  0
SECTION
  2
CLASSES
  0
CLASS
  1
ACDBDICTIONARYWDFLT
  2
AcDbDictionaryWithDefault
  3
AutoCAD 2000
 90
        0
280
     0
281
     0
  0
CLASS
  1
ACDBPLACEHOLDER
  2
AcDbPlaceHolder
  3
AutoCAD 2000
 90
        0
280
     0
281
     0
  0
CLASS
  1
LAYOUT
  2
AcDbLayout
  3
AutoCAD 2000
 90
        0
280
     0
281
     0
  0
CLASS
  1
DICTIONARYVAR
  2
AcDbDictionaryVar
  3
AutoCAD 2000
 90
        0
280
     0
281
     0
  0
ENDSEC
  0
SECTION
  2
TABLES
  0
TABLE
  2
VPORT
  5
8
330
0
100
AcDbSymbolTable
 70
     2
  0
VPORT
  5
75E
330
8
100
AcDbSymbolTableRecord
100
AcDbViewportTableRecord
  2
*Active
 70
     0
 10
0.0
 20
0.0
 11
1.0
 21
1.0
 12
5.182170056526956
 22
1934.575453087128
 13
0.0
 23
0.0
 14
1.0
 24
1.0
 15
0.0
 25
0.0
 16
0.0
 26
0.0
 36
1.0
 17
0.0
 27
0.0
 37
0.0
 40
238.3966703817263
 41
0.8980070339976553
 42
50.0
 43
0.0
 44
0.0
 50
0.0
 51
0.0
 71
     0
 72
   100
 73
     1
 74
     3
 75
     0
 76
     0
 77
     0
 78
     0
281
     0
 65
     1
110
0.0
120
0.0
130
0.0
111
1.0
121
0.0
131
0.0
112
0.0
122
1.0
132
0.0
 79
     0
146
0.0
  0
ENDTAB
  0
TABLE
  2
LTYPE
  5
5
330
0
100
AcDbSymbolTable
 70
     1
  0
LTYPE
  5
13
330
5
100
AcDbSymbolTableRecord
100
AcDbLinetypeTableRecord
  2
ByBlock
 70
     0
  3

 72
    65
 73
     0
 40
0.0
  0
LTYPE
  5
14
330
5
100
AcDbSymbolTableRecord
100
AcDbLinetypeTableRecord
  2
ByLayer
 70
     0
  3

 72
    65
 73
     0
 40
0.0
  0
LTYPE
  5
15
330
5
100
AcDbSymbolTableRecord
100
AcDbLinetypeTableRecord
  2
Continuous
 70
     0
  3
Solid line
 72
    65
 73
     0
 40
0.0
  0
ENDTAB
  0
TABLE
  2
LAYER
  5
2
330
0
100
AcDbSymbolTable
 70
     2
  0
LAYER
  5
10
330
2
100
AcDbSymbolTableRecord
100
AcDbLayerTableRecord
  2
0
 70
     0
 62
     7
  6
Continuous
370
    -3
390
F
  0
LAYER
  5
22
330
2
100
AcDbSymbolTableRecord
100
AcDbLayerTableRecord
  2
default
 70
     0
 62
     7
  6
Continuous
370
    -3
390
F
  0
ENDTAB
  0
TABLE
  2
STYLE
  5
3
330
0
100
AcDbSymbolTable
 70
     1
  0
STYLE
  5
11
330
3
100
AcDbSymbolTableRecord
100
AcDbTextStyleTableRecord
  2
Standard
 70
     0
 40
0.0
 41
1.0
 50
0.0
 71
     0
 42
8.0
  3
txt
  4

  0
ENDTAB
  0
TABLE
  2
VIEW
  5
6
330
0
100
AcDbSymbolTable
 70
     0
  0
ENDTAB
  0
TABLE
  2
UCS
  5
7
330
0
100
AcDbSymbolTable
 70
     0
  0
ENDTAB
  0
TABLE
  2
APPID
  5
9
330
0
100
AcDbSymbolTable
 70
     3
  0
APPID
  5
12
330
9
100
AcDbSymbolTableRecord
100
AcDbRegAppTableRecord
  2
ACAD
 70
     0
  0
APPID
  5
757
330
9
100
AcDbSymbolTableRecord
100
AcDbRegAppTableRecord
  2
DCO15
 70
     0
  0
APPID
  5
759
330
9
100
AcDbSymbolTableRecord
100
AcDbRegAppTableRecord
  2
ADE
 70
     0
  0
ENDTAB
  0
TABLE
  2
DIMSTYLE
  5
A
330
0
100
AcDbSymbolTable
 70
     1
100
AcDbDimStyleTable
 71
     0
  0
DIMSTYLE
105
73B
330
A
100
AcDbSymbolTableRecord
100
AcDbDimStyleTableRecord
  2
Standard
 70
     0
340
11
  0
ENDTAB
  0
TABLE
  2
BLOCK_RECORD
  5
1
330
0
100
AcDbSymbolTable
 70
     0
  0
BLOCK_RECORD
  5
1E
330
1
100
AcDbSymbolTableRecord
100
AcDbBlockTableRecord
  2
*Model_Space
340
21
  0
BLOCK_RECORD
  5
1A
330
1
100
AcDbSymbolTableRecord
100
AcDbBlockTableRecord
  2
*Paper_Space
340
1D
  0
ENDTAB
  0
ENDSEC
  0
SECTION
  2
BLOCKS
  0
BLOCK
  5
1F
330
1E
100
AcDbEntity
  8
0
100
AcDbBlockBegin
  2
*Model_Space
 70
     0
 10
0.0
 20
0.0
 30
0.0
  3
*Model_Space
  1

  0
ENDBLK
  5
20
330
1E
100
AcDbEntity
  8
0
100
AcDbBlockEnd
  0
BLOCK
  5
1B
330
1A
100
AcDbEntity
 67
     1
  8
0
100
AcDbBlockBegin
  2
*Paper_Space
 70
     0
 10
0.0
 20
0.0
 30
0.0
  3
*Paper_Space
  1

  0
ENDBLK
  5
1C
330
1A
100
AcDbEntity
 67
     1
  8
0
100
AcDbBlockEnd
  0
ENDSEC
  0
SECTION
  2
ENTITIES
  0
LINE
  5
23
330
1E
100
AcDbEntity
  8
default
  6
Continuous
 62
     4
100
AcDbLine
 10
0.0
 20
2016.0
 30
0.0
 11
0.5261000000000001
 21
2017.3441
 31
0.0
  0
LINE
  5
24
330
1E
100
AcDbEntity
  8
default
  6
Continuous
 62
     5
100
AcDbLine
 10
0.0
 20
2016.0
 30
0.0
 11
-0.5261000000000001
 21
2017.3441
 31
0.0
  0
LINE
  5
25
330
1E
100
AcDbEntity
  8
default
  6
Continuous
 62
     4
100
AcDbLine
 10
0.5261000000000001
 20
2017.3441
 30
0.0
 11
1.082899999999999
 21
2018.676999999999
 31
0.0
  0
LINE
  5
26
330
1E
100
AcDbEntity
  8
default
  6
Continuous
 62
     5
100
AcDbLine
 10
-0.5261000000000001
 20
2017.3441
 30
0.0
 11
-1.082899999999999
 21
2018.676999999999
 31
0.0
  0
LINE
  5
27
330
1E
100
AcDbEntity
  8
default
  6
Continuous
 62
     4
100
AcDbLine
 10
1.082899999999999
 20
2018.676999999999
 30
0.0
 11
1.669999999999999
 21
2019.997599999999
 31
0.0
  0
LINE
  5
28
330
1E
100
AcDbEntity
  8
default
  6
Continuous
 62
     5
100
AcDbLine
 10
-1.082899999999999
 20
2018.676999999999
 30
0.0
 11
-1.669999999999999
 21
2019.997599999999
 31
0.0
  0
LINE
  5
29
330
1E
100
AcDbEntity
  8
default
  6
Continuous
 62
     4
100
AcDbLine
 10
1.669999999999999
 20
2019.997599999999
 30
0.0
 11
2.286999999999999
 21
2021.3045
 31
0.0
  0
LINE
  5
2A
330
1E
100
AcDbEntity
  8
default
  6
Continuous
 62
     5
100
AcDbLine
 10
-1.669999999999999
 20
2019.997599999999
 30
0.0
 11
-2.286999999999999
 21
2021.3045
 31
0.0
  0
LINE
  5
2B
330
1E
100
AcDbEntity
  8
default
  6
Continuous
 62
     4
100
AcDbLine
 10
2.286999999999999
 20
2021.3045
 30
0.0
 11
2.9333
 21
2022.596599999999
 31
0.0
  0
LINE
  5
2C
330
1E
100
AcDbEntity
  8
default
  6
Continuous
 62
     5
100
AcDbLine
 10
-2.286999999999999
 20
2021.3045
 30
0.0
 11
-2.9333
 21
2022.596599999999
 31
0.0
  0
LINE
  5
2D
330
1E
100
AcDbEntity
  8
default
  6
Continuous
 62
     4
100
AcDbLine
 10
2.9333
 20
2022.596599999999
 30
0.0
 11
3.608699999999999
 21
2023.8726
 31
0.0
  0
LINE
  5
2E
330
1E
100
AcDbEntity
  8
default
  6
Continuous
 62
     5
100
AcDbLine
 10
-2.9333
 20
2022.596599999999
 30
0.0
 11
-3.608699999999999
 21
2023.8726
 31
0.0
  0
LINE
  5
2F
330
1E
100
AcDbEntity
  8
default
  6
Continuous
 62
     4
100
AcDbLine
 10
3.608699999999999
 20
2023.8726
 30
0.0
 11
4.3124
 21
2025.131299999999
 31
0.0
  0
LINE
  5
30
330
1E
100
AcDbEntity
  8
default
  6
Continuous
 62
     5
100
AcDbLine
 10
-3.608699999999999
 20
2023.8726
 30
0.0
 11
-4.3124
 21
2025.131299999999
 31
0.0
  0
LINE
  5
31
330
1E
100
AcDbEntity
  8
default
  6
Continuous
 62
     4
100
AcDbLine
 10
4.3124
 20
2025.131299999999
 30
0.0
 11
5.0441
 21
2026.371399999999
 31
0.0
  0
LINE
  5
32
330
1E
100
AcDbEntity
  8
default
  6
Continuous
 62
     5
100
AcDbLine
 10
-4.3124
 20
2025.131299999999
 30
0.0
 11
-5.0441
 21
2026.371399999999
 31
0.0
  0
LINE
  5
33
330
1E
100
AcDbEntity
  8
default
  6
Continuous
 62
     4
100
AcDbLine
 10
5.0441
 20
2026.371399999999
 30
0.0
 11
5.803099999999999
 21
2027.591699999999
 31
0.0
  0
LINE
  5
34
330
1E
100
AcDbEntity
  8
default
  6
Continuous
 62
     5
100
AcDbLine
 10
-5.0441
 20
2026.371399999999
 30
0.0
 11
-5.803099999999999
 21
2027.591699999999
 31
0.0
  0
LINE
  5
35
330
1E
100
AcDbEntity
  8
default
  6
Continuous
 62
     4
100
AcDbLine
 10
5.803099999999999
 20
2027.591699999999
 30
0.0
 11
6.588899999999999
 21
2028.7911
 31
0.0
  0
LINE
  5
36
330
1E
100
AcDbEntity
  8
default
  6
Continuous
 62
     5
100
AcDbLine
 10
-5.803099999999999
 20
2027.591699999999
 30
0.0
 11
-6.588899999999999
 21
2028.7911
 31
0.0
  0
LINE
  5
37
330
1E
100
AcDbEntity
  8
default
  6
Continuous
 62
     4
100
AcDbLine
 10
6.588899999999999
 20
2028.7911
 30
0.0
 11
7.400999999999999
 21
2029.9682
 31
0.0
  0
LINE
  5
38
330
1E
100
AcDbEntity
  8
default
  6
Continuous
 62
     5
100
AcDbLine
 10
-6.588899999999999
 20
2028.7911
 30
0.0
 11
-7.400999999999999
 21
2029.9682
 31
0.0
  0
LINE
  5
39
330
1E
100
AcDbEntity
  8
default
  6
Continuous
 62
     4
100
AcDbLine
 10
7.400999999999999
 20
2029.9682
 30
0.0
 11
8.238699999999999
 21
2031.122
 31
0.0
  0
LINE
  5
3A
330
1E
100
AcDbEntity
  8
default
  6
Continuous
 62
     5
100
AcDbLine
 10
-7.400999999999999
 20
2029.9682
 30
0.0
 11
-8.238699999999999
 21
2031.122
 31
0.0
  0
LINE
  5
3B
330
1E
100
AcDbEntity
  8
default
  6
Continuous
 62
     4
100
AcDbLine
 10
8.238699999999999
 20
2031.122
 30
0.0
 11
9.101399999999999
 21
2032.2512
 31
0.0
  0
LINE
  5
3C
330
1E
100
AcDbEntity
  8
default
  6
Continuous
 62
     5
100
AcDbLine
 10
-8.238699999999999
 20
2031.122
 30
0.0
 11
-9.101399999999999
 21
2032.2512
 31
0.0
  0
LINE
  5
3D
330
1E
100
AcDbEntity
  8
default
  6
Continuous
 62
     4
100
AcDbLine
 10
9.101399999999999
 20
2032.2512
 30
0.0
 11
9.9884
 21
2033.3547
 31
0.0
  0
LINE
  5
3E
330
1E
100
AcDbEntity
  8
default
  6
Continuous
 62
     5
100
AcDbLine
 10
-9.101399999999999
 20
2032.2512
 30
0.0
 11
-9.9884
 21
2033.3547
 31
0.0
  0
LINE
  5
3F
330
1E
100
AcDbEntity
  8
default
  6
Continuous
 62
     4
100
AcDbLine
 10
9.9884
 20
2033.3547
 30
0.0
 11
10.8992
 21
2034.4314
 31
0.0
  0
LINE
  5
40
330
1E
100
AcDbEntity
  8
default
  6
Continuous
 62
     5
100
AcDbLine
 10
-9.9884
 20
2033.3547
 30
0.0
 11
-10.8992
 21
2034.4314
 31
0.0
  0
LINE
  5
41
330
1E
100
AcDbEntity
  8
default
  6
Continuous
 62
     4
100
AcDbLine
 10
10.8992
 20
2034.4314
 30
0.0
 11
11.833
 21
2035.4801
 31
0.0
  0
LINE
  5
42
330
1E
100
AcDbEntity
  8
default
  6
Continuous
 62
     5
100
AcDbLine
 10
-10.8992
 20
2034.4314
 30
0.0
 11
-11.833
 21
2035.4801
 31
0.0
  0
LINE
  5
43
330
1E
100
AcDbEntity
  8
default
  6
Continuous
 62
     4
100
AcDbLine
 10
11.833
 20
2035.4801
 30
0.0
 11
12.78909999999999
 21
2036.4998
 31
0.0
  0
LINE
  5
44
330
1E
100
AcDbEntity
  8
default
  6
Continuous
 62
     5
100
AcDbLine
 10
-11.833
 20
2035.4801
 30
0.0
 11
-12.78909999999999
 21
2036.4998
 31
0.0
  0
LINE
  5
45
330
1E
100
AcDbEntity
  8
default
  6
Continuous
 62
     4
100
AcDbLine
 10
12.78909999999999
 20
2036.4998
 30
0.0
 11
13.76689999999999
 21
2037.4894
 31
0.0
  0
LINE
  5
46
330
1E
100
AcDbEntity
  8
default
  6
Continuous
 62
     5
100
AcDbLine
 10
-12.78909999999999
 20
2036.4998
 30
0.0
 11
-13.76689999999999
 21
2037.4894
 31
0.0
  0
LINE
  5
47
330
1E
100
AcDbEntity
  8
default
  6
Continuous
 62
     4
100
AcDbLine
 10
13.76689999999999
 20
2037.4894
 30
0.0
 11
14.7656
 21
2038.447799999999
 31
0.0
  0
LINE
  5
48
330
1E
100
AcDbEntity
  8
default
  6
Continuous
 62
     5
100
AcDbLine
 10
-13.76689999999999
 20
2037.4894
 30
0.0
 11
-14.7656
 21
2038.447799999999
 31
0.0
  0
LINE
  5
49
330
1E
100
AcDbEntity
  8
default
  6
Continuous
 62
     4
100
AcDbLine
 10
14.7656
 20
2038.447799999999
 30
0.0
 11
15.7844
 21
2039.374
 31
0.0
  0
LINE
  5
4A
330
1E
100
AcDbEntity
  8
default
  6
Continuous
 62
     5
100
AcDbLine
 10
-14.7656
 20
2038.447799999999
 30
0.0
 11
-15.7844
 21
2039.374
 31
0.0
  0
LINE
  5
4B
330
1E
100
AcDbEntity
  8
default
  6
Continuous
 62
     4
100
AcDbLine
 10
15.7844
 20
2039.374
 30
0.0
 11
16.8227
 21
2040.2671
 31
0.0
  0
LINE
  5
4C
330
1E
100
AcDbEntity
  8
default
  6
Continuous
 62
     5
100
AcDbLine
 10
-15.7844
 20
2039.374
 30
0.0
 11
-16.8227
 21
2040.2671
 31
0.0
  0
LINE
  5
4D
330
1E
100
AcDbEntity
  8
default
  6
Continuous
 62
     4
100
AcDbLine
 10
16.8227
 20
2040.2671
 30
0.0
 11
17.87959999999999
 21
2041.125999999999
 31
0.0
  0
LINE
  5
4E
330
1E
100
AcDbEntity
  8
default
  6
Continuous
 62
     5
100
AcDbLine
 10
-16.8227
 20
2040.2671
 30
0.0
 11
-17.87959999999999
 21
2041.125999999999
 31
0.0
  0
LINE
  5
4F
330
1E
100
AcDbEntity
  8
default
  6
Continuous
 62
     4
100
AcDbLine
 10
17.87959999999999
 20
2041.125999999999
 30
0.0
 11
18.95439999999999
 21
2041.9499
 31
0.0
  0
LINE
  5
50
330
1E
100
AcDbEntity
  8
default
  6
Continuous
 62
     5
100
AcDbLine
 10
-17.87959999999999
 20
2041.125999999999
 30
0.0
 11
-18.95439999999999
 21
2041.9499
 31
0.0
  0
LINE
  5
51
330
1E
100
AcDbEntity
  8
default
  6
Continuous
 62
     4
100
AcDbLine
 10
18.95439999999999
 20
2041.9499
 30
0.0
 11
20.0462
 21
2042.7379
 31
0.0
  0
LINE
  5
52
330
1E
100
AcDbEntity
  8
default
  6
Continuous
 62
     5
100
AcDbLine
 10
-18.95439999999999
 20
2041.9499
 30
0.0
 11
-20.0462
 21
2042.7379
 31
0.0
  0
LINE
  5
53
330
1E
100
AcDbEntity
  8
default
  6
Continuous
 62
     4
100
AcDbLine
 10
20.0462
 20
2042.7379
 30
0.0
 11
21.15429999999999
 21
2043.489099999999
 31
0.0
  0
LINE
  5
54
330
1E
100
AcDbEntity
  8
default
  6
Continuous
 62
     5
100
AcDbLine
 10
-20.0462
 20
2042.7379
 30
0.0
 11
-21.15429999999999
 21
2043.489099999999
 31
0.0
  0
LINE
  5
55
330
1E
100
AcDbEntity
  8
default
  6
Continuous
 62
     4
100
AcDbLine
 10
21.15429999999999
 20
2043.489099999999
 30
0.0
 11
22.2779
 21
2044.2027
 31
0.0
  0
LINE
  5
56
330
1E
100
AcDbEntity
  8
default
  6
Continuous
 62
     5
100
AcDbLine
 10
-21.15429999999999
 20
2043.489099999999
 30
0.0
 11
-22.2779
 21
2044.2027
 31
0.0
  0
LINE
  5
57
330
1E
100
AcDbEntity
  8
default
  6
Continuous
 62
     4
100
AcDbLine
 10
22.2779
 20
2044.2027
 30
0.0
 11
23.416
 21
2044.877899999999
 31
0.0
  0
LINE
  5
58
330
1E
100
AcDbEntity
  8
default
  6
Continuous
 62
     5
100
AcDbLine
 10
-22.2779
 20
2044.2027
 30
0.0
 11
-23.416
 21
2044.877899999999
 31
0.0
  0
LINE
  5
59
330
1E
100
AcDbEntity
  8
default
  6
Continuous
 62
     4
100
AcDbLine
 10
23.416
 20
2044.877899999999
 30
0.0
 11
24.5679
 21
2045.513899999999
 31
0.0
  0
LINE
  5
5A
330
1E
100
AcDbEntity
  8
default
  6
Continuous
 62
     5
100
AcDbLine
 10
-23.416
 20
2044.877899999999
 30
0.0
 11
-24.5679
 21
2045.513899999999
 31
0.0
  0
LINE
  5
5B
330
1E
100
AcDbEntity
  8
default
  6
Continuous
 62
     4
100
AcDbLine
 10
24.5679
 20
2045.513899999999
 30
0.0
 11
25.7328
 21
2046.1101
 31
0.0
  0
LINE
  5
5C
330
1E
100
AcDbEntity
  8
default
  6
Continuous
 62
     5
100
AcDbLine
 10
-24.5679
 20
2045.513899999999
 30
0.0
 11
-25.7328
 21
2046.1101
 31
0.0
  0
LINE
  5
5D
330
1E
100
AcDbEntity
  8
default
  6
Continuous
 62
     4
100
AcDbLine
 10
25.7328
 20
2046.1101
 30
0.0
 11
26.9096
 21
2046.6659
 31
0.0
  0
LINE
  5
5E
330
1E
100
AcDbEntity
  8
default
  6
Continuous
 62
     5
100
AcDbLine
 10
-25.7328
 20
2046.1101
 30
0.0
 11
-26.9096
 21
2046.6659
 31
0.0
  0
LINE
  5
5F
330
1E
100
AcDbEntity
  8
default
  6
Continuous
 62
     4
100
AcDbLine
 10
26.9096
 20
2046.6659
 30
0.0
 11
28.0977
 21
2047.1805
 31
0.0
  0
LINE
  5
60
330
1E
100
AcDbEntity
  8
default
  6
Continuous
 62
     5
100
AcDbLine
 10
-26.9096
 20
2046.6659
 30
0.0
 11
-28.0977
 21
2047.1805
 31
0.0
  0
LINE
  5
61
330
1E
100
AcDbEntity
  8
default
  6
Continuous
 62
     4
100
AcDbLine
 10
28.0977
 20
2047.1805
 30
0.0
 11
29.296
 21
2047.6535
 31
0.0
  0
LINE
  5
62
330
1E
100
AcDbEntity
  8
default
  6
Continuous
 62
     5
100
AcDbLine
 10
-28.0977
 20
2047.1805
 30
0.0
 11
-29.296
 21
2047.6535
 31
0.0
  0
LINE
  5
63
330
1E
100
AcDbEntity
  8
default
  6
Continuous
 62
     4
100
AcDbLine
 10
29.296
 20
2047.6535
 30
0.0
 11
30.5038
 21
2048.084199999999
 31
0.0
  0
LINE
  5
64
330
1E
100
AcDbEntity
  8
default
  6
Continuous
 62
     5
100
AcDbLine
 10
-29.296
 20
2047.6535
 30
0.0
 11
-30.5038
 21
2048.084199999999
 31
0.0
  0
LINE
  5
65
330
1E
100
AcDbEntity
  8
default
  6
Continuous
 62
     4
100
AcDbLine
 10
30.5038
 20
2048.084199999999
 30
0.0
 11
31.72
 21
2048.472299999999
 31
0.0
  0
LINE
  5
66
330
1E
100
AcDbEntity
  8
default
  6
Continuous
 62
     5
100
AcDbLine
 10
-30.5038
 20
2048.084199999999
 30
0.0
 11
-31.72
 21
2048.472299999999
 31
0.0
  0
LINE
  5
67
330
1E
100
AcDbEntity
  8
default
  6
Continuous
 62
     4
100
AcDbLine
 10
31.72
 20
2048.472299999999
 30
0.0
 11
32.94389999999999
 21
2048.817199999999
 31
0.0
  0
LINE
  5
68
330
1E
100
AcDbEntity
  8
default
  6
Continuous
 62
     5
100
AcDbLine
 10
-31.72
 20
2048.472299999999
 30
0.0
 11
-32.94389999999999
 21
2048.817199999999
 31
0.0
  0
LINE
  5
69
330
1E
100
AcDbEntity
  8
default
  6
Continuous
 62
     4
100
AcDbLine
 10
32.94389999999999
 20
2048.817199999999
 30
0.0
 11
34.1745
 21
2049.1187
 31
0.0
  0
LINE
  5
6A
330
1E
100
AcDbEntity
  8
default
  6
Continuous
 62
     5
100
AcDbLine
 10
-32.94389999999999
 20
2048.817199999999
 30
0.0
 11
-34.1745
 21
2049.1187
 31
0.0
  0
LINE
  5
6B
330
1E
100
AcDbEntity
  8
default
  6
Continuous
 62
     4
100
AcDbLine
 10
34.1745
 20
2049.1187
 30
0.0
 11
35.4109
 21
2049.3763
 31
0.0
  0
LINE
  5
6C
330
1E
100
AcDbEntity
  8
default
  6
Continuous
 62
     5
100
AcDbLine
 10
-34.1745
 20
2049.1187
 30
0.0
 11
-35.4109
 21
2049.3763
 31
0.0
  0
LINE
  5
6D
330
1E
100
AcDbEntity
  8
default
  6
Continuous
 62
     4
100
AcDbLine
 10
35.4109
 20
2049.3763
 30
0.0
 11
36.6521
 21
2049.589699999999
 31
0.0
  0
LINE
  5
6E
330
1E
100
AcDbEntity
  8
default
  6
Continuous
 62
     5
100
AcDbLine
 10
-35.4109
 20
2049.3763
 30
0.0
 11
-36.6521
 21
2049.589699999999
 31
0.0
  0
LINE
  5
6F
330
1E
100
AcDbEntity
  8
default
  6
Continuous
 62
     4
100
AcDbLine
 10
36.6521
 20
2049.589699999999
 30
0.0
 11
37.8973
 21
2049.7588
 31
0.0
  0
LINE
  5
70
330
1E
100
AcDbEntity
  8
default
  6
Continuous
 62
     5
100
AcDbLine
 10
-36.6521
 20
2049.589699999999
 30
0.0
 11
-37.8973
 21
2049.7588
 31
0.0
  0
LINE
  5
71
330
1E
100
AcDbEntity
  8
default
  6
Continuous
 62
     4
100
AcDbLine
 10
37.8973
 20
2049.7588
 30
0.0
 11
39.1456
 21
2049.8834
 31
0.0
  0
LINE
  5
72
330
1E
100
AcDbEntity
  8
default
  6
Continuous
 62
     5
100
AcDbLine
 10
-37.8973
 20
2049.7588
 30
0.0
 11
-39.1456
 21
2049.8834
 31
0.0
  0
LINE
  5
73
330
1E
100
AcDbEntity
  8
default
  6
Continuous
 62
     4
100
AcDbLine
 10
39.1456
 20
2049.8834
 30
0.0
 11
40.396
 21
2049.9632
 31
0.0
  0
LINE
  5
74
330
1E
100
AcDbEntity
  8
default
  6
Continuous
 62
     5
100
AcDbLine
 10
-39.1456
 20
2049.8834
 30
0.0
 11
-40.396
 21
2049.9632
 31
0.0
  0
LINE
  5
75
330
1E
100
AcDbEntity
  8
default
  6
Continuous
 62
     4
100
AcDbLine
 10
40.396
 20
2049.9632
 30
0.0
 11
41.6475
 21
2049.9982
 31
0.0
  0
LINE
  5
76
330
1E
100
AcDbEntity
  8
default
  6
Continuous
 62
     5
100
AcDbLine
 10
-40.396
 20
2049.9632
 30
0.0
 11
-41.6475
 21
2049.9982
 31
0.0
  0
LINE
  5
77
330
1E
100
AcDbEntity
  8
default
  6
Continuous
 62
     4
100
AcDbLine
 10
41.6475
 20
2049.9982
 30
0.0
 11
42.8993
 21
2049.990399999999
 31
0.0
  0
LINE
  5
78
330
1E
100
AcDbEntity
  8
default
  6
Continuous
 62
     5
100
AcDbLine
 10
-41.6475
 20
2049.9982
 30
0.0
 11
-42.8993
 21
2049.990399999999
 31
0.0
  0
LINE
  5
79
330
1E
100
AcDbEntity
  8
default
  6
Continuous
 62
     4
100
AcDbLine
 10
42.8993
 20
2049.990399999999
 30
0.0
 11
44.15049999999999
 21
2049.9453
 31
0.0
  0
LINE
  5
7A
330
1E
100
AcDbEntity
  8
default
  6
Continuous
 62
     5
100
AcDbLine
 10
-42.8993
 20
2049.990399999999
 30
0.0
 11
-44.15049999999999
 21
2049.9453
 31
0.0
  0
LINE
  5
7B
330
1E
100
AcDbEntity
  8
default
  6
Continuous
 62
     4
100
AcDbLine
 10
44.15049999999999
 20
2049.9453
 30
0.0
 11
45.4001
 21
2049.863199999999
 31
0.0
  0
LINE
  5
7C
330
1E
100
AcDbEntity
  8
default
  6
Continuous
 62
     5
100
AcDbLine
 10
-44.15049999999999
 20
2049.9453
 30
0.0
 11
-45.4001
 21
2049.863199999999
 31
0.0
  0
LINE
  5
7D
330
1E
100
AcDbEntity
  8
default
  6
Continuous
 62
     4
100
AcDbLine
 10
45.4001
 20
2049.863199999999
 30
0.0
 11
46.6471
 21
2049.7442
 31
0.0
  0
LINE
  5
7E
330
1E
100
AcDbEntity
  8
default
  6
Continuous
 62
     5
100
AcDbLine
 10
-45.4001
 20
2049.863199999999
 30
0.0
 11
-46.6471
 21
2049.7442
 31
0.0
  0
LINE
  5
7F
330
1E
100
AcDbEntity
  8
default
  6
Continuous
 62
     4
100
AcDbLine
 10
46.6471
 20
2049.7442
 30
0.0
 11
47.8907
 21
2049.588299999999
 31
0.0
  0
LINE
  5
80
330
1E
100
AcDbEntity
  8
default
  6
Continuous
 62
     5
100
AcDbLine
 10
-46.6471
 20
2049.7442
 30
0.0
 11
-47.8907
 21
2049.588299999999
 31
0.0
  0
LINE
  5
81
330
1E
100
AcDbEntity
  8
default
  6
Continuous
 62
     4
100
AcDbLine
 10
47.8907
 20
2049.588299999999
 30
0.0
 11
49.1299
 21
2049.3957
 31
0.0
  0
LINE
  5
82
330
1E
100
AcDbEntity
  8
default
  6
Continuous
 62
     5
100
AcDbLine
 10
-47.8907
 20
2049.588299999999
 30
0.0
 11
-49.1299
 21
2049.3957
 31
0.0
  0
LINE
  5
83
330
1E
100
AcDbEntity
  8
default
  6
Continuous
 62
     4
100
AcDbLine
 10
49.1299
 20
2049.3957
 30
0.0
 11
50.3639
 21
2049.1666
 31
0.0
  0
LINE
  5
84
330
1E
100
AcDbEntity
  8
default
  6
Continuous
 62
     5
100
AcDbLine
 10
-49.1299
 20
2049.3957
 30
0.0
 11
-50.3639
 21
2049.1666
 31
0.0
  0
LINE
  5
85
330
1E
100
AcDbEntity
  8
default
  6
Continuous
 62
     4
100
AcDbLine
 10
50.3639
 20
2049.1666
 30
0.0
 11
51.5917
 21
2048.901
 31
0.0
  0
LINE
  5
86
330
1E
100
AcDbEntity
  8
default
  6
Continuous
 62
     5
100
AcDbLine
 10
-50.3639
 20
2049.1666
 30
0.0
 11
-51.5917
 21
2048.901
 31
0.0
  0
LINE
  5
87
330
1E
100
AcDbEntity
  8
default
  6
Continuous
 62
     4
100
AcDbLine
 10
51.5917
 20
2048.901
 30
0.0
 11
52.8123
 21
2048.5992
 31
0.0
  0
LINE
  5
88
330
1E
100
AcDbEntity
  8
default
  6
Continuous
 62
     5
100
AcDbLine
 10
-51.5917
 20
2048.901
 30
0.0
 11
-52.8123
 21
2048.5992
 31
0.0
  0
LINE
  5
89
330
1E
100
AcDbEntity
  8
default
  6
Continuous
 62
     4
100
AcDbLine
 10
52.8123
 20
2048.5992
 30
0.0
 11
54.02499999999999
 21
2048.261399999999
 31
0.0
  0
LINE
  5
8A
330
1E
100
AcDbEntity
  8
default
  6
Continuous
 62
     5
100
AcDbLine
 10
-52.8123
 20
2048.5992
 30
0.0
 11
-54.02499999999999
 21
2048.261399999999
 31
0.0
  0
LINE
  5
8B
330
1E
100
AcDbEntity
  8
default
  6
Continuous
 62
     4
100
AcDbLine
 10
54.02499999999999
 20
2048.261399999999
 30
0.0
 11
55.22870000000001
 21
2047.8878
 31
0.0
  0
LINE
  5
8C
330
1E
100
AcDbEntity
  8
default
  6
Continuous
 62
     5
100
AcDbLine
 10
-54.02499999999999
 20
2048.261399999999
 30
0.0
 11
-55.22870000000001
 21
2047.8878
 31
0.0
  0
LINE
  5
8D
330
1E
100
AcDbEntity
  8
default
  6
Continuous
 62
     4
100
AcDbLine
 10
55.22870000000001
 20
2047.8878
 30
0.0
 11
56.42269999999999
 21
2047.478799999999
 31
0.0
  0
LINE
  5
8E
330
1E
100
AcDbEntity
  8
default
  6
Continuous
 62
     5
100
AcDbLine
 10
-55.22870000000001
 20
2047.8878
 30
0.0
 11
-56.42269999999999
 21
2047.478799999999
 31
0.0
  0
LINE
  5
8F
330
1E
100
AcDbEntity
  8
default
  6
Continuous
 62
     4
100
AcDbLine
 10
56.42269999999999
 20
2047.478799999999
 30
0.0
 11
57.6059
 21
2047.034599999999
 31
0.0
  0
LINE
  5
90
330
1E
100
AcDbEntity
  8
default
  6
Continuous
 62
     5
100
AcDbLine
 10
-56.42269999999999
 20
2047.478799999999
 30
0.0
 11
-57.6059
 21
2047.034599999999
 31
0.0
  0
LINE
  5
91
330
1E
100
AcDbEntity
  8
default
  6
Continuous
 62
     4
100
AcDbLine
 10
57.6059
 20
2047.034599999999
 30
0.0
 11
58.7777
 21
2046.5556
 31
0.0
  0
LINE
  5
92
330
1E
100
AcDbEntity
  8
default
  6
Continuous
 62
     5
100
AcDbLine
 10
-57.6059
 20
2047.034599999999
 30
0.0
 11
-58.7777
 21
2046.5556
 31
0.0
  0
LINE
  5
93
330
1E
100
AcDbEntity
  8
default
  6
Continuous
 62
     4
100
AcDbLine
 10
58.7777
 20
2046.5556
 30
0.0
 11
59.9369
 21
2046.0421
 31
0.0
  0
LINE
  5
94
330
1E
100
AcDbEntity
  8
default
  6
Continuous
 62
     5
100
AcDbLine
 10
-58.7777
 20
2046.5556
 30
0.0
 11
-59.9369
 21
2046.0421
 31
0.0
  0
LINE
  5
95
330
1E
100
AcDbEntity
  8
default
  6
Continuous
 62
     4
100
AcDbLine
 10
59.9369
 20
2046.0421
 30
0.0
 11
61.0829
 21
2045.4946
 31
0.0
  0
LINE
  5
96
330
1E
100
AcDbEntity
  8
default
  6
Continuous
 62
     5
100
AcDbLine
 10
-59.9369
 20
2046.0421
 30
0.0
 11
-61.0829
 21
2045.4946
 31
0.0
  0
LINE
  5
97
330
1E
100
AcDbEntity
  8
default
  6
Continuous
 62
     4
100
AcDbLine
 10
61.0829
 20
2045.4946
 30
0.0
 11
62.21479999999999
 21
2044.9133
 31
0.0
  0
LINE
  5
98
330
1E
100
AcDbEntity
  8
default
  6
Continuous
 62
     5
100
AcDbLine
 10
-61.0829
 20
2045.4946
 30
0.0
 11
-62.21479999999999
 21
2044.9133
 31
0.0
  0
LINE
  5
99
330
1E
100
AcDbEntity
  8
default
  6
Continuous
 62
     4
100
AcDbLine
 10
62.21479999999999
 20
2044.9133
 30
0.0
 11
63.33169999999999
 21
2044.298799999999
 31
0.0
  0
LINE
  5
9A
330
1E
100
AcDbEntity
  8
default
  6
Continuous
 62
     5
100
AcDbLine
 10
-62.21479999999999
 20
2044.9133
 30
0.0
 11
-63.33169999999999
 21
2044.298799999999
 31
0.0
  0
LINE
  5
9B
330
1E
100
AcDbEntity
  8
default
  6
Continuous
 62
     4
100
AcDbLine
 10
63.33169999999999
 20
2044.298799999999
 30
0.0
 11
64.4328
 21
2043.651399999999
 31
0.0
  0
LINE
  5
9C
330
1E
100
AcDbEntity
  8
default
  6
Continuous
 62
     5
100
AcDbLine
 10
-63.33169999999999
 20
2044.298799999999
 30
0.0
 11
-64.4328
 21
2043.651399999999
 31
0.0
  0
LINE
  5
9D
330
1E
100
AcDbEntity
  8
default
  6
Continuous
 62
     4
100
AcDbLine
 10
64.4328
 20
2043.651399999999
 30
0.0
 11
65.5173
 21
2042.9717
 31
0.0
  0
LINE
  5
9E
330
1E
100
AcDbEntity
  8
default
  6
Continuous
 62
     5
100
AcDbLine
 10
-64.4328
 20
2043.651399999999
 30
0.0
 11
-65.5173
 21
2042.9717
 31
0.0
  0
LINE
  5
9F
330
1E
100
AcDbEntity
  8
default
  6
Continuous
 62
     4
100
AcDbLine
 10
65.5173
 20
2042.9717
 30
0.0
 11
66.5844
 21
2042.2602
 31
0.0
  0
LINE
  5
A0
330
1E
100
AcDbEntity
  8
default
  6
Continuous
 62
     5
100
AcDbLine
 10
-65.5173
 20
2042.9717
 30
0.0
 11
-66.5844
 21
2042.2602
 31
0.0
  0
LINE
  5
A1
330
1E
100
AcDbEntity
  8
default
  6
Continuous
 62
     4
100
AcDbLine
 10
66.5844
 20
2042.2602
 30
0.0
 11
67.6332
 21
2041.5174
 31
0.0
  0
LINE
  5
A2
330
1E
100
AcDbEntity
  8
default
  6
Continuous
 62
     5
100
AcDbLine
 10
-66.5844
 20
2042.2602
 30
0.0
 11
-67.6332
 21
2041.5174
 31
0.0
  0
LINE
  5
A3
330
1E
100
AcDbEntity
  8
default
  6
Continuous
 62
     4
100
AcDbLine
 10
67.6332
 20
2041.5174
 30
0.0
 11
68.6631
 21
2040.7439
 31
0.0
  0
LINE
  5
A4
330
1E
100
AcDbEntity
  8
default
  6
Continuous
 62
     5
100
AcDbLine
 10
-67.6332
 20
2041.5174
 30
0.0
 11
-68.6631
 21
2040.7439
 31
0.0
  0
LINE
  5
A5
330
1E
100
AcDbEntity
  8
default
  6
Continuous
 62
     4
100
AcDbLine
 10
68.6631
 20
2040.7439
 30
0.0
 11
69.67319999999999
 21
2039.9402
 31
0.0
  0
LINE
  5
A6
330
1E
100
AcDbEntity
  8
default
  6
Continuous
 62
     5
100
AcDbLine
 10
-68.6631
 20
2040.7439
 30
0.0
 11
-69.67319999999999
 21
2039.9402
 31
0.0
  0
LINE
  5
A7
330
1E
100
AcDbEntity
  8
default
  6
Continuous
 62
     4
100
AcDbLine
 10
69.67319999999999
 20
2039.9402
 30
0.0
 11
70.66289999999999
 21
2039.1069
 31
0.0
  0
LINE
  5
A8
330
1E
100
AcDbEntity
  8
default
  6
Continuous
 62
     5
100
AcDbLine
 10
-69.67319999999999
 20
2039.9402
 30
0.0
 11
-70.66289999999999
 21
2039.1069
 31
0.0
  0
LINE
  5
A9
330
1E
100
AcDbEntity
  8
default
  6
Continuous
 62
     4
100
AcDbLine
 10
70.66289999999999
 20
2039.1069
 30
0.0
 11
71.63129999999999
 21
2038.2446
 31
0.0
  0
LINE
  5
AA
330
1E
100
AcDbEntity
  8
default
  6
Continuous
 62
     5
100
AcDbLine
 10
-70.66289999999999
 20
2039.1069
 30
0.0
 11
-71.63129999999999
 21
2038.2446
 31
0.0
  0
LINE
  5
AB
330
1E
100
AcDbEntity
  8
default
  6
Continuous
 62
     4
100
AcDbLine
 10
71.63129999999999
 20
2038.2446
 30
0.0
 11
72.57769999999999
 21
2037.354
 31
0.0
  0
LINE
  5
AC
330
1E
100
AcDbEntity
  8
default
  6
Continuous
 62
     5
100
AcDbLine
 10
-71.63129999999999
 20
2038.2446
 30
0.0
 11
-72.57769999999999
 21
2037.354
 31
0.0
  0
LINE
  5
AD
330
1E
100
AcDbEntity
  8
default
  6
Continuous
 62
     4
100
AcDbLine
 10
72.57769999999999
 20
2037.354
 30
0.0
 11
73.50159999999999
 21
2036.4358
 31
0.0
  0
LINE
  5
AE
330
1E
100
AcDbEntity
  8
default
  6
Continuous
 62
     5
100
AcDbLine
 10
-72.57769999999999
 20
2037.354
 30
0.0
 11
-73.50159999999999
 21
2036.4358
 31
0.0
  0
LINE
  5
AF
330
1E
100
AcDbEntity
  8
default
  6
Continuous
 62
     4
100
AcDbLine
 10
73.50159999999999
 20
2036.4358
 30
0.0
 11
74.4021
 21
2035.4905
 31
0.0
  0
LINE
  5
B0
330
1E
100
AcDbEntity
  8
default
  6
Continuous
 62
     5
100
AcDbLine
 10
-73.50159999999999
 20
2036.4358
 30
0.0
 11
-74.4021
 21
2035.4905
 31
0.0
  0
LINE
  5
B1
330
1E
100
AcDbEntity
  8
default
  6
Continuous
 62
     4
100
AcDbLine
 10
74.4021
 20
2035.4905
 30
0.0
 11
75.27849999999999
 21
2034.518999999999
 31
0.0
  0
LINE
  5
B2
330
1E
100
AcDbEntity
  8
default
  6
Continuous
 62
     5
100
AcDbLine
 10
-74.4021
 20
2035.4905
 30
0.0
 11
-75.27849999999999
 21
2034.518999999999
 31
0.0
  0
LINE
  5
B3
330
1E
100
AcDbEntity
  8
default
  6
Continuous
 62
     4
100
AcDbLine
 10
75.27849999999999
 20
2034.518999999999
 30
0.0
 11
76.13039999999999
 21
2033.521899999999
 31
0.0
  0
LINE
  5
B4
330
1E
100
AcDbEntity
  8
default
  6
Continuous
 62
     5
100
AcDbLine
 10
-75.27849999999999
 20
2034.518999999999
 30
0.0
 11
-76.13039999999999
 21
2033.521899999999
 31
0.0
  0
LINE
  5
B5
330
1E
100
AcDbEntity
  8
default
  6
Continuous
 62
     4
100
AcDbLine
 10
76.13039999999999
 20
2033.521899999999
 30
0.0
 11
76.95699999999999
 21
2032.5
 31
0.0
  0
LINE
  5
B6
330
1E
100
AcDbEntity
  8
default
  6
Continuous
 62
     5
100
AcDbLine
 10
-76.13039999999999
 20
2033.521899999999
 30
0.0
 11
-76.95699999999999
 21
2032.5
 31
0.0
  0
LINE
  5
B7
330
1E
100
AcDbEntity
  8
default
  6
Continuous
 62
     4
100
AcDbLine
 10
76.95699999999999
 20
2032.5
 30
0.0
 11
77.7576
 21
2031.454
 31
0.0
  0
LINE
  5
B8
330
1E
100
AcDbEntity
  8
default
  6
Continuous
 62
     5
100
AcDbLine
 10
-76.95699999999999
 20
2032.5
 30
0.0
 11
-77.7576
 21
2031.454
 31
0.0
  0
LINE
  5
B9
330
1E
100
AcDbEntity
  8
default
  6
Continuous
 62
     4
100
AcDbLine
 10
77.7576
 20
2031.454
 30
0.0
 11
78.5318
 21
2030.3848
 31
0.0
  0
LINE
  5
BA
330
1E
100
AcDbEntity
  8
default
  6
Continuous
 62
     5
100
AcDbLine
 10
-77.7576
 20
2031.454
 30
0.0
 11
-78.5318
 21
2030.3848
 31
0.0
  0
LINE
  5
BB
330
1E
100
AcDbEntity
  8
default
  6
Continuous
 62
     4
100
AcDbLine
 10
78.5318
 20
2030.3848
 30
0.0
 11
79.279
 21
2029.293
 31
0.0
  0
LINE
  5
BC
330
1E
100
AcDbEntity
  8
default
  6
Continuous
 62
     5
100
AcDbLine
 10
-78.5318
 20
2030.3848
 30
0.0
 11
-79.279
 21
2029.293
 31
0.0
  0
LINE
  5
BD
330
1E
100
AcDbEntity
  8
default
  6
Continuous
 62
     4
100
AcDbLine
 10
79.279
 20
2029.293
 30
0.0
 11
79.99850000000001
 21
2028.179499999999
 31
0.0
  0
LINE
  5
BE
330
1E
100
AcDbEntity
  8
default
  6
Continuous
 62
     5
100
AcDbLine
 10
-79.279
 20
2029.293
 30
0.0
 11
-79.99850000000001
 21
2028.179499999999
 31
0.0
  0
LINE
  5
BF
330
1E
100
AcDbEntity
  8
default
  6
Continuous
 62
     4
100
AcDbLine
 10
79.99850000000001
 20
2028.179499999999
 30
0.0
 11
80.68989999999999
 21
2027.0452
 31
0.0
  0
LINE
  5
C0
330
1E
100
AcDbEntity
  8
default
  6
Continuous
 62
     5
100
AcDbLine
 10
-79.99850000000001
 20
2028.179499999999
 30
0.0
 11
-80.68989999999999
 21
2027.0452
 31
0.0
  0
LINE
  5
C1
330
1E
100
AcDbEntity
  8
default
  6
Continuous
 62
     4
100
AcDbLine
 10
80.68989999999999
 20
2027.0452
 30
0.0
 11
81.3526
 21
2025.890799999999
 31
0.0
  0
LINE
  5
C2
330
1E
100
AcDbEntity
  8
default
  6
Continuous
 62
     5
100
AcDbLine
 10
-80.68989999999999
 20
2027.0452
 30
0.0
 11
-81.3526
 21
2025.890799999999
 31
0.0
  0
LINE
  5
C3
330
1E
100
AcDbEntity
  8
default
  6
Continuous
 62
     4
100
AcDbLine
 10
81.3526
 20
2025.890799999999
 30
0.0
 11
81.9862
 21
2024.7173
 31
0.0
  0
LINE
  5
C4
330
1E
100
AcDbEntity
  8
default
  6
Continuous
 62
     5
100
AcDbLine
 10
-81.3526
 20
2025.890799999999
 30
0.0
 11
-81.9862
 21
2024.7173
 31
0.0
  0
LINE
  5
C5
330
1E
100
AcDbEntity
  8
default
  6
Continuous
 62
     4
100
AcDbLine
 10
81.9862
 20
2024.7173
 30
0.0
 11
82.59019999999999
 21
2023.5254
 31
0.0
  0
LINE
  5
C6
330
1E
100
AcDbEntity
  8
default
  6
Continuous
 62
     5
100
AcDbLine
 10
-81.9862
 20
2024.7173
 30
0.0
 11
-82.59019999999999
 21
2023.5254
 31
0.0
  0
LINE
  5
C7
330
1E
100
AcDbEntity
  8
default
  6
Continuous
 62
     4
100
AcDbLine
 10
82.59019999999999
 20
2023.5254
 30
0.0
 11
83.16410000000001
 21
2022.3161
 31
0.0
  0
LINE
  5
C8
330
1E
100
AcDbEntity
  8
default
  6
Continuous
 62
     5
100
AcDbLine
 10
-82.59019999999999
 20
2023.5254
 30
0.0
 11
-83.16410000000001
 21
2022.3161
 31
0.0
  0
LINE
  5
C9
330
1E
100
AcDbEntity
  8
default
  6
Continuous
 62
     4
100
AcDbLine
 10
83.16410000000001
 20
2022.3161
 30
0.0
 11
83.70749999999999
 21
2021.0903
 31
0.0
  0
LINE
  5
CA
330
1E
100
AcDbEntity
  8
default
  6
Continuous
 62
     5
100
AcDbLine
 10
-83.16410000000001
 20
2022.3161
 30
0.0
 11
-83.70749999999999
 21
2021.0903
 31
0.0
  0
LINE
  5
CB
330
1E
100
AcDbEntity
  8
default
  6
Continuous
 62
     4
100
AcDbLine
 10
83.70749999999999
 20
2021.0903
 30
0.0
 11
84.2201
 21
2019.848899999999
 31
0.0
  0
LINE
  5
CC
330
1E
100
AcDbEntity
  8
default
  6
Continuous
 62
     5
100
AcDbLine
 10
-83.70749999999999
 20
2021.0903
 30
0.0
 11
-84.2201
 21
2019.848899999999
 31
0.0
  0
LINE
  5
CD
330
1E
100
AcDbEntity
  8
default
  6
Continuous
 62
     4
100
AcDbLine
 10
84.2201
 20
2019.848899999999
 30
0.0
 11
84.7014
 21
2018.592799999999
 31
0.0
  0
LINE
  5
CE
330
1E
100
AcDbEntity
  8
default
  6
Continuous
 62
     5
100
AcDbLine
 10
-84.2201
 20
2019.848899999999
 30
0.0
 11
-84.7014
 21
2018.592799999999
 31
0.0
  0
LINE
  5
CF
330
1E
100
AcDbEntity
  8
default
  6
Continuous
 62
     4
100
AcDbLine
 10
84.7014
 20
2018.592799999999
 30
0.0
 11
85.151
 21
2017.322899999999
 31
0.0
  0
LINE
  5
D0
330
1E
100
AcDbEntity
  8
default
  6
Continuous
 62
     5
100
AcDbLine
 10
-84.7014
 20
2018.592799999999
 30
0.0
 11
-85.151
 21
2017.322899999999
 31
0.0
  0
LINE
  5
D1
330
1E
100
AcDbEntity
  8
default
  6
Continuous
 62
     4
100
AcDbLine
 10
85.151
 20
2017.322899999999
 30
0.0
 11
85.56870000000001
 21
2016.0402
 31
0.0
  0
LINE
  5
D2
330
1E
100
AcDbEntity
  8
default
  6
Continuous
 62
     5
100
AcDbLine
 10
-85.151
 20
2017.322899999999
 30
0.0
 11
-85.56870000000001
 21
2016.0402
 31
0.0
  0
LINE
  5
D3
330
1E
100
AcDbEntity
  8
default
  6
Continuous
 62
     4
100
AcDbLine
 10
85.56870000000001
 20
2016.0402
 30
0.0
 11
85.95409999999999
 21
2014.7456
 31
0.0
  0
LINE
  5
D4
330
1E
100
AcDbEntity
  8
default
  6
Continuous
 62
     5
100
AcDbLine
 10
-85.56870000000001
 20
2016.0402
 30
0.0
 11
-85.95409999999999
 21
2014.7456
 31
0.0
  0
LINE
  5
D5
330
1E
100
AcDbEntity
  8
default
  6
Continuous
 62
     4
100
AcDbLine
 10
85.95409999999999
 20
2014.7456
 30
0.0
 11
86.307
 21
2013.440099999999
 31
0.0
  0
LINE
  5
D6
330
1E
100
AcDbEntity
  8
default
  6
Continuous
 62
     5
100
AcDbLine
 10
-85.95409999999999
 20
2014.7456
 30
0.0
 11
-86.307
 21
2013.440099999999
 31
0.0
  0
LINE
  5
D7
330
1E
100
AcDbEntity
  8
default
  6
Continuous
 62
     4
100
AcDbLine
 10
86.307
 20
2013.440099999999
 30
0.0
 11
86.6271
 21
2012.1246
 31
0.0
  0
LINE
  5
D8
330
1E
100
AcDbEntity
  8
default
  6
Continuous
 62
     5
100
AcDbLine
 10
-86.307
 20
2013.440099999999
 30
0.0
 11
-86.6271
 21
2012.1246
 31
0.0
  0
LINE
  5
D9
330
1E
100
AcDbEntity
  8
default
  6
Continuous
 62
     4
100
AcDbLine
 10
86.6271
 20
2012.1246
 30
0.0
 11
86.91410000000001
 21
2010.800099999999
 31
0.0
  0
LINE
  5
DA
330
1E
100
AcDbEntity
  8
default
  6
Continuous
 62
     5
100
AcDbLine
 10
-86.6271
 20
2012.1246
 30
0.0
 11
-86.91410000000001
 21
2010.800099999999
 31
0.0
  0
LINE
  5
DB
330
1E
100
AcDbEntity
  8
default
  6
Continuous
 62
     4
100
AcDbLine
 10
86.91410000000001
 20
2010.800099999999
 30
0.0
 11
87.16779999999999
 21
2009.4677
 31
0.0
  0
LINE
  5
DC
330
1E
100
AcDbEntity
  8
default
  6
Continuous
 62
     5
100
AcDbLine
 10
-86.91410000000001
 20
2010.800099999999
 30
0.0
 11
-87.16779999999999
 21
2009.4677
 31
0.0
  0
LINE
  5
DD
330
1E
100
AcDbEntity
  8
default
  6
Continuous
 62
     4
100
AcDbLine
 10
87.16779999999999
 20
2009.4677
 30
0.0
 11
87.38809999999999
 21
2008.1282
 31
0.0
  0
LINE
  5
DE
330
1E
100
AcDbEntity
  8
default
  6
Continuous
 62
     5
100
AcDbLine
 10
-87.16779999999999
 20
2009.4677
 30
0.0
 11
-87.38809999999999
 21
2008.1282
 31
0.0
  0
LINE
  5
DF
330
1E
100
AcDbEntity
  8
default
  6
Continuous
 62
     4
100
AcDbLine
 10
87.38809999999999
 20
2008.1282
 30
0.0
 11
87.57479999999999
 21
2006.7827
 31
0.0
  0
LINE
  5
E0
330
1E
100
AcDbEntity
  8
default
  6
Continuous
 62
     5
100
AcDbLine
 10
-87.38809999999999
 20
2008.1282
 30
0.0
 11
-87.57479999999999
 21
2006.7827
 31
0.0
  0
LINE
  5
E1
330
1E
100
AcDbEntity
  8
default
  6
Continuous
 62
     4
100
AcDbLine
 10
87.57479999999999
 20
2006.7827
 30
0.0
 11
87.72769999999999
 21
2005.432199999999
 31
0.0
  0
LINE
  5
E2
330
1E
100
AcDbEntity
  8
default
  6
Continuous
 62
     5
100
AcDbLine
 10
-87.57479999999999
 20
2006.7827
 30
0.0
 11
-87.72769999999999
 21
2005.432199999999
 31
0.0
  0
LINE
  5
E3
330
1E
100
AcDbEntity
  8
default
  6
Continuous
 62
     4
100
AcDbLine
 10
87.72769999999999
 20
2005.432199999999
 30
0.0
 11
87.84679999999999
 21
2004.0777
 31
0.0
  0
LINE
  5
E4
330
1E
100
AcDbEntity
  8
default
  6
Continuous
 62
     5
100
AcDbLine
 10
-87.72769999999999
 20
2005.432199999999
 30
0.0
 11
-87.84679999999999
 21
2004.0777
 31
0.0
  0
LINE
  5
E5
330
1E
100
AcDbEntity
  8
default
  6
Continuous
 62
     4
100
AcDbLine
 10
87.84679999999999
 20
2004.0777
 30
0.0
 11
87.9319
 21
2002.7201
 31
0.0
  0
LINE
  5
E6
330
1E
100
AcDbEntity
  8
default
  6
Continuous
 62
     5
100
AcDbLine
 10
-87.84679999999999
 20
2004.0777
 30
0.0
 11
-87.9319
 21
2002.7201
 31
0.0
  0
LINE
  5
E7
330
1E
100
AcDbEntity
  8
default
  6
Continuous
 62
     4
100
AcDbLine
 10
87.9319
 20
2002.7201
 30
0.0
 11
87.98300000000001
 21
2001.360599999999
 31
0.0
  0
LINE
  5
E8
330
1E
100
AcDbEntity
  8
default
  6
Continuous
 62
     5
100
AcDbLine
 10
-87.9319
 20
2002.7201
 30
0.0
 11
-87.98300000000001
 21
2001.360599999999
 31
0.0
  0
LINE
  5
E9
330
1E
100
AcDbEntity
  8
default
  6
Continuous
 62
     4
100
AcDbLine
 10
87.98300000000001
 20
2001.360599999999
 30
0.0
 11
88.0
 21
2000.0
 31
0.0
  0
LINE
  5
EA
330
1E
100
AcDbEntity
  8
default
  6
Continuous
 62
     5
100
AcDbLine
 10
-87.98300000000001
 20
2001.360599999999
 30
0.0
 11
-88.0
 21
2000.0
 31
0.0
  0
LINE
  5
EB
330
1E
100
AcDbEntity
  8
default
  6
Continuous
 62
     1
100
AcDbLine
 10
0.0
 20
-80.0
 30
0.0
 11
0.2074
 21
-81.38249999999999
 31
0.0
  0
LINE
  5
EC
330
1E
100
AcDbEntity
  8
default
  6
Continuous
 62
     1
100
AcDbLine
 10
0.0
 20
-80.0
 30
0.0
 11
-0.2074
 21
-81.38249999999999
 31
0.0
  0
LINE
  5
ED
330
1E
100
AcDbEntity
  8
default
  6
Continuous
 62
     1
100
AcDbLine
 10
0.2074
 20
-81.38249999999999
 30
0.0
 11
0.4268
 21
-82.75879999999999
 31
0.0
  0
LINE
  5
EE
330
1E
100
AcDbEntity
  8
default
  6
Continuous
 62
     1
100
AcDbLine
 10
-0.2074
 20
-81.38249999999999
 30
0.0
 11
-0.4268
 21
-82.75879999999999
 31
0.0
  0
LINE
  5
EF
330
1E
100
AcDbEntity
  8
default
  6
Continuous
 62
     1
100
AcDbLine
 10
0.4268
 20
-82.75879999999999
 30
0.0
 11
0.6582
 21
-84.12779999999999
 31
0.0
  0
LINE
  5
F0
330
1E
100
AcDbEntity
  8
default
  6
Continuous
 62
     1
100
AcDbLine
 10
-0.4268
 20
-82.75879999999999
 30
0.0
 11
-0.6582
 21
-84.12779999999999
 31
0.0
  0
LINE
  5
F1
330
1E
100
AcDbEntity
  8
default
  6
Continuous
 62
     1
100
AcDbLine
 10
0.6582
 20
-84.12779999999999
 30
0.0
 11
0.9013999999999999
 21
-85.4888
 31
0.0
  0
LINE
  5
F2
330
1E
100
AcDbEntity
  8
default
  6
Continuous
 62
     1
100
AcDbLine
 10
-0.6582
 20
-84.12779999999999
 30
0.0
 11
-0.9013999999999999
 21
-85.4888
 31
0.0
  0
LINE
  5
F3
330
1E
100
AcDbEntity
  8
default
  6
Continuous
 62
     1
100
AcDbLine
 10
0.9013999999999999
 20
-85.4888
 30
0.0
 11
1.156199999999999
 21
-86.8407
 31
0.0
  0
LINE
  5
F4
330
1E
100
AcDbEntity
  8
default
  6
Continuous
 62
     1
100
AcDbLine
 10
-0.9013999999999999
 20
-85.4888
 30
0.0
 11
-1.156199999999999
 21
-86.8407
 31
0.0
  0
LINE
  5
F5
330
1E
100
AcDbEntity
  8
default
  6
Continuous
 62
     1
100
AcDbLine
 10
1.156199999999999
 20
-86.8407
 30
0.0
 11
1.4224
 21
-88.1826
 31
0.0
  0
LINE
  5
F6
330
1E
100
AcDbEntity
  8
default
  6
Continuous
 62
     1
100
AcDbLine
 10
-1.156199999999999
 20
-86.8407
 30
0.0
 11
-1.4224
 21
-88.1826
 31
0.0
  0
LINE
  5
F7
330
1E
100
AcDbEntity
  8
default
  6
Continuous
 62
     1
100
AcDbLine
 10
1.4224
 20
-88.1826
 30
0.0
 11
1.699799999999999
 21
-89.5137
 31
0.0
  0
LINE
  5
F8
330
1E
100
AcDbEntity
  8
default
  6
Continuous
 62
     1
100
AcDbLine
 10
-1.4224
 20
-88.1826
 30
0.0
 11
-1.699799999999999
 21
-89.5137
 31
0.0
  0
LINE
  5
F9
330
1E
100
AcDbEntity
  8
default
  6
Continuous
 62
     1
100
AcDbLine
 10
1.699799999999999
 20
-89.5137
 30
0.0
 11
1.988199999999999
 21
-90.83299999999999
 31
0.0
  0
LINE
  5
FA
330
1E
100
AcDbEntity
  8
default
  6
Continuous
 62
     1
100
AcDbLine
 10
-1.699799999999999
 20
-89.5137
 30
0.0
 11
-1.988199999999999
 21
-90.83299999999999
 31
0.0
  0
LINE
  5
FB
330
1E
100
AcDbEntity
  8
default
  6
Continuous
 62
     1
100
AcDbLine
 10
1.988199999999999
 20
-90.83299999999999
 30
0.0
 11
2.287399999999999
 21
-92.1396
 31
0.0
  0
LINE
  5
FC
330
1E
100
AcDbEntity
  8
default
  6
Continuous
 62
     1
100
AcDbLine
 10
-1.988199999999999
 20
-90.83299999999999
 30
0.0
 11
-2.287399999999999
 21
-92.1396
 31
0.0
  0
LINE
  5
FD
330
1E
100
AcDbEntity
  8
default
  6
Continuous
 62
     1
100
AcDbLine
 10
2.287399999999999
 20
-92.1396
 30
0.0
 11
2.5971
 21
-93.4327
 31
0.0
  0
LINE
  5
FE
330
1E
100
AcDbEntity
  8
default
  6
Continuous
 62
     1
100
AcDbLine
 10
-2.287399999999999
 20
-92.1396
 30
0.0
 11
-2.5971
 21
-93.4327
 31
0.0
  0
LINE
  5
FF
330
1E
100
AcDbEntity
  8
default
  6
Continuous
 62
     1
100
AcDbLine
 10
2.5971
 20
-93.4327
 30
0.0
 11
2.917199999999999
 21
-94.71149999999999
 31
0.0
  0
LINE
  5
100
330
1E
100
AcDbEntity
  8
default
  6
Continuous
 62
     1
100
AcDbLine
 10
-2.5971
 20
-93.4327
 30
0.0
 11
-2.917199999999999
 21
-94.71149999999999
 31
0.0
  0
LINE
  5
101
330
1E
100
AcDbEntity
  8
default
  6
Continuous
 62
     1
100
AcDbLine
 10
2.917199999999999
 20
-94.71149999999999
 30
0.0
 11
3.247399999999999
 21
-95.97520000000001
 31
0.0
  0
LINE
  5
102
330
1E
100
AcDbEntity
  8
default
  6
Continuous
 62
     1
100
AcDbLine
 10
-2.917199999999999
 20
-94.71149999999999
 30
0.0
 11
-3.247399999999999
 21
-95.97520000000001
 31
0.0
  0
LINE
  5
103
330
1E
100
AcDbEntity
  8
default
  6
Continuous
 62
     1
100
AcDbLine
 10
3.247399999999999
 20
-95.97520000000001
 30
0.0
 11
3.5874
 21
-97.2229
 31
0.0
  0
LINE
  5
104
330
1E
100
AcDbEntity
  8
default
  6
Continuous
 62
     1
100
AcDbLine
 10
-3.247399999999999
 20
-95.97520000000001
 30
0.0
 11
-3.5874
 21
-97.2229
 31
0.0
  0
LINE
  5
105
330
1E
100
AcDbEntity
  8
default
  6
Continuous
 62
     1
100
AcDbLine
 10
3.5874
 20
-97.2229
 30
0.0
 11
3.9371
 21
-98.45399999999999
 31
0.0
  0
LINE
  5
106
330
1E
100
AcDbEntity
  8
default
  6
Continuous
 62
     1
100
AcDbLine
 10
-3.5874
 20
-97.2229
 30
0.0
 11
-3.9371
 21
-98.45399999999999
 31
0.0
  0
LINE
  5
107
330
1E
100
AcDbEntity
  8
default
  6
Continuous
 62
     1
100
AcDbLine
 10
3.9371
 20
-98.45399999999999
 30
0.0
 11
4.2961
 21
-99.66779999999999
 31
0.0
  0
LINE
  5
108
330
1E
100
AcDbEntity
  8
default
  6
Continuous
 62
     1
100
AcDbLine
 10
-3.9371
 20
-98.45399999999999
 30
0.0
 11
-4.2961
 21
-99.66779999999999
 31
0.0
  0
LINE
  5
109
330
1E
100
AcDbEntity
  8
default
  6
Continuous
 62
     1
100
AcDbLine
 10
4.2961
 20
-99.66779999999999
 30
0.0
 11
4.6641
 21
-100.8636
 31
0.0
  0
LINE
  5
10A
330
1E
100
AcDbEntity
  8
default
  6
Continuous
 62
     1
100
AcDbLine
 10
-4.2961
 20
-99.66779999999999
 30
0.0
 11
-4.6641
 21
-100.8636
 31
0.0
  0
LINE
  5
10B
330
1E
100
AcDbEntity
  8
default
  6
Continuous
 62
     1
100
AcDbLine
 10
4.6641
 20
-100.8636
 30
0.0
 11
5.041
 21
-102.0407999999999
 31
0.0
  0
LINE
  5
10C
330
1E
100
AcDbEntity
  8
default
  6
Continuous
 62
     1
100
AcDbLine
 10
-4.6641
 20
-100.8636
 30
0.0
 11
-5.041
 21
-102.0407999999999
 31
0.0
  0
LINE
  5
10D
330
1E
100
AcDbEntity
  8
default
  6
Continuous
 62
     1
100
AcDbLine
 10
5.041
 20
-102.0407999999999
 30
0.0
 11
5.4264
 21
-103.1989
 31
0.0
  0
LINE
  5
10E
330
1E
100
AcDbEntity
  8
default
  6
Continuous
 62
     1
100
AcDbLine
 10
-5.041
 20
-102.0407999999999
 30
0.0
 11
-5.4264
 21
-103.1989
 31
0.0
  0
LINE
  5
10F
330
1E
100
AcDbEntity
  8
default
  6
Continuous
 62
     1
100
AcDbLine
 10
5.4264
 20
-103.1989
 30
0.0
 11
5.8201
 21
-104.3373
 31
0.0
  0
LINE
  5
110
330
1E
100
AcDbEntity
  8
default
  6
Continuous
 62
     1
100
AcDbLine
 10
-5.4264
 20
-103.1989
 30
0.0
 11
-5.8201
 21
-104.3373
 31
0.0
  0
LINE
  5
111
330
1E
100
AcDbEntity
  8
default
  6
Continuous
 62
     1
100
AcDbLine
 10
5.8201
 20
-104.3373
 30
0.0
 11
6.2217
 21
-105.4556999999999
 31
0.0
  0
LINE
  5
112
330
1E
100
AcDbEntity
  8
default
  6
Continuous
 62
     1
100
AcDbLine
 10
-5.8201
 20
-104.3373
 30
0.0
 11
-6.2217
 21
-105.4556999999999
 31
0.0
  0
LINE
  5
113
330
1E
100
AcDbEntity
  8
default
  6
Continuous
 62
     1
100
AcDbLine
 10
6.2217
 20
-105.4556999999999
 30
0.0
 11
6.630899999999999
 21
-106.5537999999999
 31
0.0
  0
LINE
  5
114
330
1E
100
AcDbEntity
  8
default
  6
Continuous
 62
     1
100
AcDbLine
 10
-6.2217
 20
-105.4556999999999
 30
0.0
 11
-6.630899999999999
 21
-106.5537999999999
 31
0.0
  0
LINE
  5
115
330
1E
100
AcDbEntity
  8
default
  6
Continuous
 62
     1
100
AcDbLine
 10
6.630899999999999
 20
-106.5537999999999
 30
0.0
 11
7.0475
 21
-107.6311
 31
0.0
  0
LINE
  5
116
330
1E
100
AcDbEntity
  8
default
  6
Continuous
 62
     1
100
AcDbLine
 10
-6.630899999999999
 20
-106.5537999999999
 30
0.0
 11
-7.0475
 21
-107.6311
 31
0.0
  0
LINE
  5
117
330
1E
100
AcDbEntity
  8
default
  6
Continuous
 62
     1
100
AcDbLine
 10
7.0475
 20
-107.6311
 30
0.0
 11
7.471099999999999
 21
-108.6875
 31
0.0
  0
LINE
  5
118
330
1E
100
AcDbEntity
  8
default
  6
Continuous
 62
     1
100
AcDbLine
 10
-7.0475
 20
-107.6311
 30
0.0
 11
-7.471099999999999
 21
-108.6875
 31
0.0
  0
LINE
  5
119
330
1E
100
AcDbEntity
  8
default
  6
Continuous
 62
     1
100
AcDbLine
 10
7.471099999999999
 20
-108.6875
 30
0.0
 11
7.9015
 21
-109.7229999999999
 31
0.0
  0
LINE
  5
11A
330
1E
100
AcDbEntity
  8
default
  6
Continuous
 62
     1
100
AcDbLine
 10
-7.471099999999999
 20
-108.6875
 30
0.0
 11
-7.9015
 21
-109.7229999999999
 31
0.0
  0
LINE
  5
11B
330
1E
100
AcDbEntity
  8
default
  6
Continuous
 62
     1
100
AcDbLine
 10
7.9015
 20
-109.7229999999999
 30
0.0
 11
8.3383
 21
-110.7373999999999
 31
0.0
  0
LINE
  5
11C
330
1E
100
AcDbEntity
  8
default
  6
Continuous
 62
     1
100
AcDbLine
 10
-7.9015
 20
-109.7229999999999
 30
0.0
 11
-8.3383
 21
-110.7373999999999
 31
0.0
  0
LINE
  5
11D
330
1E
100
AcDbEntity
  8
default
  6
Continuous
 62
     1
100
AcDbLine
 10
8.3383
 20
-110.7373999999999
 30
0.0
 11
8.7811
 21
-111.7309
 31
0.0
  0
LINE
  5
11E
330
1E
100
AcDbEntity
  8
default
  6
Continuous
 62
     1
100
AcDbLine
 10
-8.3383
 20
-110.7373999999999
 30
0.0
 11
-8.7811
 21
-111.7309
 31
0.0
  0
LINE
  5
11F
330
1E
100
AcDbEntity
  8
default
  6
Continuous
 62
     1
100
AcDbLine
 10
8.7811
 20
-111.7309
 30
0.0
 11
9.229799999999999
 21
-112.7037
 31
0.0
  0
LINE
  5
120
330
1E
100
AcDbEntity
  8
default
  6
Continuous
 62
     1
100
AcDbLine
 10
-8.7811
 20
-111.7309
 30
0.0
 11
-9.229799999999999
 21
-112.7037
 31
0.0
  0
LINE
  5
121
330
1E
100
AcDbEntity
  8
default
  6
Continuous
 62
     1
100
AcDbLine
 10
9.229799999999999
 20
-112.7037
 30
0.0
 11
9.683799999999999
 21
-113.656
 31
0.0
  0
LINE
  5
122
330
1E
100
AcDbEntity
  8
default
  6
Continuous
 62
     1
100
AcDbLine
 10
-9.229799999999999
 20
-112.7037
 30
0.0
 11
-9.683799999999999
 21
-113.656
 31
0.0
  0
LINE
  5
123
330
1E
100
AcDbEntity
  8
default
  6
Continuous
 62
     1
100
AcDbLine
 10
9.683799999999999
 20
-113.656
 30
0.0
 11
10.14289999999999
 21
-114.5882
 31
0.0
  0
LINE
  5
124
330
1E
100
AcDbEntity
  8
default
  6
Continuous
 62
     1
100
AcDbLine
 10
-9.683799999999999
 20
-113.656
 30
0.0
 11
-10.14289999999999
 21
-114.5882
 31
0.0
  0
LINE
  5
125
330
1E
100
AcDbEntity
  8
default
  6
Continuous
 62
     1
100
AcDbLine
 10
10.14289999999999
 20
-114.5882
 30
0.0
 11
10.6068
 21
-115.501
 31
0.0
  0
LINE
  5
126
330
1E
100
AcDbEntity
  8
default
  6
Continuous
 62
     1
100
AcDbLine
 10
-10.14289999999999
 20
-114.5882
 30
0.0
 11
-10.6068
 21
-115.501
 31
0.0
  0
LINE
  5
127
330
1E
100
AcDbEntity
  8
default
  6
Continuous
 62
     1
100
AcDbLine
 10
10.6068
 20
-115.501
 30
0.0
 11
11.0751
 21
-116.3949
 31
0.0
  0
LINE
  5
128
330
1E
100
AcDbEntity
  8
default
  6
Continuous
 62
     1
100
AcDbLine
 10
-10.6068
 20
-115.501
 30
0.0
 11
-11.0751
 21
-116.3949
 31
0.0
  0
LINE
  5
129
330
1E
100
AcDbEntity
  8
default
  6
Continuous
 62
     1
100
AcDbLine
 10
11.0751
 20
-116.3949
 30
0.0
 11
11.5474
 21
-117.2707999999999
 31
0.0
  0
LINE
  5
12A
330
1E
100
AcDbEntity
  8
default
  6
Continuous
 62
     1
100
AcDbLine
 10
-11.0751
 20
-116.3949
 30
0.0
 11
-11.5474
 21
-117.2707999999999
 31
0.0
  0
LINE
  5
12B
330
1E
100
AcDbEntity
  8
default
  6
Continuous
 62
     1
100
AcDbLine
 10
11.5474
 20
-117.2707999999999
 30
0.0
 11
12.0235
 21
-118.1297
 31
0.0
  0
LINE
  5
12C
330
1E
100
AcDbEntity
  8
default
  6
Continuous
 62
     1
100
AcDbLine
 10
-11.5474
 20
-117.2707999999999
 30
0.0
 11
-12.0235
 21
-118.1297
 31
0.0
  0
LINE
  5
12D
330
1E
100
AcDbEntity
  8
default
  6
Continuous
 62
     1
100
AcDbLine
 10
12.0235
 20
-118.1297
 30
0.0
 11
12.5029
 21
-118.9726999999999
 31
0.0
  0
LINE
  5
12E
330
1E
100
AcDbEntity
  8
default
  6
Continuous
 62
     1
100
AcDbLine
 10
-12.0235
 20
-118.1297
 30
0.0
 11
-12.5029
 21
-118.9726999999999
 31
0.0
  0
LINE
  5
12F
330
1E
100
AcDbEntity
  8
default
  6
Continuous
 62
     1
100
AcDbLine
 10
12.5029
 20
-118.9726999999999
 30
0.0
 11
12.9853
 21
-119.8009
 31
0.0
  0
LINE
  5
130
330
1E
100
AcDbEntity
  8
default
  6
Continuous
 62
     1
100
AcDbLine
 10
-12.5029
 20
-118.9726999999999
 30
0.0
 11
-12.9853
 21
-119.8009
 31
0.0
  0
LINE
  5
131
330
1E
100
AcDbEntity
  8
default
  6
Continuous
 62
     1
100
AcDbLine
 10
12.9853
 20
-119.8009
 30
0.0
 11
13.4703
 21
-120.6158999999999
 31
0.0
  0
LINE
  5
132
330
1E
100
AcDbEntity
  8
default
  6
Continuous
 62
     1
100
AcDbLine
 10
-12.9853
 20
-119.8009
 30
0.0
 11
-13.4703
 21
-120.6158999999999
 31
0.0
  0
LINE
  5
133
330
1E
100
AcDbEntity
  8
default
  6
Continuous
 62
     1
100
AcDbLine
 10
13.4703
 20
-120.6158999999999
 30
0.0
 11
13.9577
 21
-121.419
 31
0.0
  0
LINE
  5
134
330
1E
100
AcDbEntity
  8
default
  6
Continuous
 62
     1
100
AcDbLine
 10
-13.4703
 20
-120.6158999999999
 30
0.0
 11
-13.9577
 21
-121.419
 31
0.0
  0
LINE
  5
135
330
1E
100
AcDbEntity
  8
default
  6
Continuous
 62
     1
100
AcDbLine
 10
13.9577
 20
-121.419
 30
0.0
 11
14.4469
 21
-122.2118999999999
 31
0.0
  0
LINE
  5
136
330
1E
100
AcDbEntity
  8
default
  6
Continuous
 62
     1
100
AcDbLine
 10
-13.9577
 20
-121.419
 30
0.0
 11
-14.4469
 21
-122.2118999999999
 31
0.0
  0
LINE
  5
137
330
1E
100
AcDbEntity
  8
default
  6
Continuous
 62
     1
100
AcDbLine
 10
14.4469
 20
-122.2118999999999
 30
0.0
 11
14.9378
 21
-122.9964999999999
 31
0.0
  0
LINE
  5
138
330
1E
100
AcDbEntity
  8
default
  6
Continuous
 62
     1
100
AcDbLine
 10
-14.4469
 20
-122.2118999999999
 30
0.0
 11
-14.9378
 21
-122.9964999999999
 31
0.0
  0
LINE
  5
139
330
1E
100
AcDbEntity
  8
default
  6
Continuous
 62
     1
100
AcDbLine
 10
14.9378
 20
-122.9964999999999
 30
0.0
 11
15.4298
 21
-123.7745
 31
0.0
  0
LINE
  5
13A
330
1E
100
AcDbEntity
  8
default
  6
Continuous
 62
     1
100
AcDbLine
 10
-14.9378
 20
-122.9964999999999
 30
0.0
 11
-15.4298
 21
-123.7745
 31
0.0
  0
LINE
  5
13B
330
1E
100
AcDbEntity
  8
default
  6
Continuous
 62
     1
100
AcDbLine
 10
15.4298
 20
-123.7745
 30
0.0
 11
15.9226
 21
-124.548
 31
0.0
  0
LINE
  5
13C
330
1E
100
AcDbEntity
  8
default
  6
Continuous
 62
     1
100
AcDbLine
 10
-15.4298
 20
-123.7745
 30
0.0
 11
-15.9226
 21
-124.548
 31
0.0
  0
LINE
  5
13D
330
1E
100
AcDbEntity
  8
default
  6
Continuous
 62
     1
100
AcDbLine
 10
15.9226
 20
-124.548
 30
0.0
 11
16.4159
 21
-125.3187999999999
 31
0.0
  0
LINE
  5
13E
330
1E
100
AcDbEntity
  8
default
  6
Continuous
 62
     1
100
AcDbLine
 10
-15.9226
 20
-124.548
 30
0.0
 11
-16.4159
 21
-125.3187999999999
 31
0.0
  0
LINE
  5
13F
330
1E
100
AcDbEntity
  8
default
  6
Continuous
 62
     1
100
AcDbLine
 10
16.4159
 20
-125.3187999999999
 30
0.0
 11
16.9094
 21
-126.089
 31
0.0
  0
LINE
  5
140
330
1E
100
AcDbEntity
  8
default
  6
Continuous
 62
     1
100
AcDbLine
 10
-16.4159
 20
-125.3187999999999
 30
0.0
 11
-16.9094
 21
-126.089
 31
0.0
  0
LINE
  5
141
330
1E
100
AcDbEntity
  8
default
  6
Continuous
 62
     1
100
AcDbLine
 10
16.9094
 20
-126.089
 30
0.0
 11
17.4025
 21
-126.8601
 31
0.0
  0
LINE
  5
142
330
1E
100
AcDbEntity
  8
default
  6
Continuous
 62
     1
100
AcDbLine
 10
-16.9094
 20
-126.089
 30
0.0
 11
-17.4025
 21
-126.8601
 31
0.0
  0
LINE
  5
143
330
1E
100
AcDbEntity
  8
default
  6
Continuous
 62
     1
100
AcDbLine
 10
17.4025
 20
-126.8601
 30
0.0
 11
17.89509999999999
 21
-127.6333
 31
0.0
  0
LINE
  5
144
330
1E
100
AcDbEntity
  8
default
  6
Continuous
 62
     1
100
AcDbLine
 10
-17.4025
 20
-126.8601
 30
0.0
 11
-17.89509999999999
 21
-127.6333
 31
0.0
  0
LINE
  5
145
330
1E
100
AcDbEntity
  8
default
  6
Continuous
 62
     1
100
AcDbLine
 10
17.89509999999999
 20
-127.6333
 30
0.0
 11
18.3866
 21
-128.4096999999999
 31
0.0
  0
LINE
  5
146
330
1E
100
AcDbEntity
  8
default
  6
Continuous
 62
     1
100
AcDbLine
 10
-17.89509999999999
 20
-127.6333
 30
0.0
 11
-18.3866
 21
-128.4096999999999
 31
0.0
  0
LINE
  5
147
330
1E
100
AcDbEntity
  8
default
  6
Continuous
 62
     1
100
AcDbLine
 10
18.3866
 20
-128.4096999999999
 30
0.0
 11
18.87679999999999
 21
-129.1905999999999
 31
0.0
  0
LINE
  5
148
330
1E
100
AcDbEntity
  8
default
  6
Continuous
 62
     1
100
AcDbLine
 10
-18.3866
 20
-128.4096999999999
 30
0.0
 11
-18.87679999999999
 21
-129.1905999999999
 31
0.0
  0
LINE
  5
149
330
1E
100
AcDbEntity
  8
default
  6
Continuous
 62
     1
100
AcDbLine
 10
18.87679999999999
 20
-129.1905999999999
 30
0.0
 11
19.3653
 21
-129.977
 31
0.0
  0
LINE
  5
14A
330
1E
100
AcDbEntity
  8
default
  6
Continuous
 62
     1
100
AcDbLine
 10
-18.87679999999999
 20
-129.1905999999999
 30
0.0
 11
-19.3653
 21
-129.977
 31
0.0
  0
LINE
  5
14B
330
1E
100
AcDbEntity
  8
default
  6
Continuous
 62
     1
100
AcDbLine
 10
19.3653
 20
-129.977
 30
0.0
 11
19.8516
 21
-130.77
 31
0.0
  0
LINE
  5
14C
330
1E
100
AcDbEntity
  8
default
  6
Continuous
 62
     1
100
AcDbLine
 10
-19.3653
 20
-129.977
 30
0.0
 11
-19.8516
 21
-130.77
 31
0.0
  0
LINE
  5
14D
330
1E
100
AcDbEntity
  8
default
  6
Continuous
 62
     1
100
AcDbLine
 10
19.8516
 20
-130.77
 30
0.0
 11
20.3356
 21
-131.5706999999999
 31
0.0
  0
LINE
  5
14E
330
1E
100
AcDbEntity
  8
default
  6
Continuous
 62
     1
100
AcDbLine
 10
-19.8516
 20
-130.77
 30
0.0
 11
-20.3356
 21
-131.5706999999999
 31
0.0
  0
LINE
  5
14F
330
1E
100
AcDbEntity
  8
default
  6
Continuous
 62
     1
100
AcDbLine
 10
20.3356
 20
-131.5706999999999
 30
0.0
 11
20.8167
 21
-132.3801
 31
0.0
  0
LINE
  5
150
330
1E
100
AcDbEntity
  8
default
  6
Continuous
 62
     1
100
AcDbLine
 10
-20.3356
 20
-131.5706999999999
 30
0.0
 11
-20.8167
 21
-132.3801
 31
0.0
  0
LINE
  5
151
330
1E
100
AcDbEntity
  8
default
  6
Continuous
 62
     1
100
AcDbLine
 10
20.8167
 20
-132.3801
 30
0.0
 11
21.29469999999999
 21
-133.1990999999999
 31
0.0
  0
LINE
  5
152
330
1E
100
AcDbEntity
  8
default
  6
Continuous
 62
     1
100
AcDbLine
 10
-20.8167
 20
-132.3801
 30
0.0
 11
-21.29469999999999
 21
-133.1990999999999
 31
0.0
  0
LINE
  5
153
330
1E
100
AcDbEntity
  8
default
  6
Continuous
 62
     1
100
AcDbLine
 10
21.29469999999999
 20
-133.1990999999999
 30
0.0
 11
21.7692
 21
-134.0286
 31
0.0
  0
LINE
  5
154
330
1E
100
AcDbEntity
  8
default
  6
Continuous
 62
     1
100
AcDbLine
 10
-21.29469999999999
 20
-133.1990999999999
 30
0.0
 11
-21.7692
 21
-134.0286
 31
0.0
  0
LINE
  5
155
330
1E
100
AcDbEntity
  8
default
  6
Continuous
 62
     1
100
AcDbLine
 10
21.7692
 20
-134.0286
 30
0.0
 11
22.2398
 21
-134.8694
 31
0.0
  0
LINE
  5
156
330
1E
100
AcDbEntity
  8
default
  6
Continuous
 62
     1
100
AcDbLine
 10
-21.7692
 20
-134.0286
 30
0.0
 11
-22.2398
 21
-134.8694
 31
0.0
  0
LINE
  5
157
330
1E
100
AcDbEntity
  8
default
  6
Continuous
 62
     1
100
AcDbLine
 10
22.2398
 20
-134.8694
 30
0.0
 11
22.7062
 21
-135.7221999999999
 31
0.0
  0
LINE
  5
158
330
1E
100
AcDbEntity
  8
default
  6
Continuous
 62
     1
100
AcDbLine
 10
-22.2398
 20
-134.8694
 30
0.0
 11
-22.7062
 21
-135.7221999999999
 31
0.0
  0
LINE
  5
159
330
1E
100
AcDbEntity
  8
default
  6
Continuous
 62
     1
100
AcDbLine
 10
22.7062
 20
-135.7221999999999
 30
0.0
 11
23.168
 21
-136.5877
 31
0.0
  0
LINE
  5
15A
330
1E
100
AcDbEntity
  8
default
  6
Continuous
 62
     1
100
AcDbLine
 10
-22.7062
 20
-135.7221999999999
 30
0.0
 11
-23.168
 21
-136.5877
 31
0.0
  0
LINE
  5
15B
330
1E
100
AcDbEntity
  8
default
  6
Continuous
 62
     1
100
AcDbLine
 10
23.168
 20
-136.5877
 30
0.0
 11
23.625
 21
-137.4665999999999
 31
0.0
  0
LINE
  5
15C
330
1E
100
AcDbEntity
  8
default
  6
Continuous
 62
     1
100
AcDbLine
 10
-23.168
 20
-136.5877
 30
0.0
 11
-23.625
 21
-137.4665999999999
 31
0.0
  0
LINE
  5
15D
330
1E
100
AcDbEntity
  8
default
  6
Continuous
 62
     1
100
AcDbLine
 10
23.625
 20
-137.4665999999999
 30
0.0
 11
24.07669999999999
 21
-138.3592999999999
 31
0.0
  0
LINE
  5
15E
330
1E
100
AcDbEntity
  8
default
  6
Continuous
 62
     1
100
AcDbLine
 10
-23.625
 20
-137.4665999999999
 30
0.0
 11
-24.07669999999999
 21
-138.3592999999999
 31
0.0
  0
LINE
  5
15F
330
1E
100
AcDbEntity
  8
default
  6
Continuous
 62
     1
100
AcDbLine
 10
24.07669999999999
 20
-138.3592999999999
 30
0.0
 11
24.5228
 21
-139.2664
 31
0.0
  0
LINE
  5
160
330
1E
100
AcDbEntity
  8
default
  6
Continuous
 62
     1
100
AcDbLine
 10
-24.07669999999999
 20
-138.3592999999999
 30
0.0
 11
-24.5228
 21
-139.2664
 31
0.0
  0
LINE
  5
161
330
1E
100
AcDbEntity
  8
default
  6
Continuous
 62
     1
100
AcDbLine
 10
24.5228
 20
-139.2664
 30
0.0
 11
24.9631
 21
-140.1882999999999
 31
0.0
  0
LINE
  5
162
330
1E
100
AcDbEntity
  8
default
  6
Continuous
 62
     1
100
AcDbLine
 10
-24.5228
 20
-139.2664
 30
0.0
 11
-24.9631
 21
-140.1882999999999
 31
0.0
  0
LINE
  5
163
330
1E
100
AcDbEntity
  8
default
  6
Continuous
 62
     1
100
AcDbLine
 10
24.9631
 20
-140.1882999999999
 30
0.0
 11
25.39709999999999
 21
-141.1253
 31
0.0
  0
LINE
  5
164
330
1E
100
AcDbEntity
  8
default
  6
Continuous
 62
     1
100
AcDbLine
 10
-24.9631
 20
-140.1882999999999
 30
0.0
 11
-25.39709999999999
 21
-141.1253
 31
0.0
  0
LINE
  5
165
330
1E
100
AcDbEntity
  8
default
  6
Continuous
 62
     1
100
AcDbLine
 10
25.39709999999999
 20
-141.1253
 30
0.0
 11
25.8246
 21
-142.0778
 31
0.0
  0
LINE
  5
166
330
1E
100
AcDbEntity
  8
default
  6
Continuous
 62
     1
100
AcDbLine
 10
-25.39709999999999
 20
-141.1253
 30
0.0
 11
-25.8246
 21
-142.0778
 31
0.0
  0
LINE
  5
167
330
1E
100
AcDbEntity
  8
default
  6
Continuous
 62
     1
100
AcDbLine
 10
25.8246
 20
-142.0778
 30
0.0
 11
26.2452
 21
-143.0458999999999
 31
0.0
  0
LINE
  5
168
330
1E
100
AcDbEntity
  8
default
  6
Continuous
 62
     1
100
AcDbLine
 10
-25.8246
 20
-142.0778
 30
0.0
 11
-26.2452
 21
-143.0458999999999
 31
0.0
  0
LINE
  5
169
330
1E
100
AcDbEntity
  8
default
  6
Continuous
 62
     1
100
AcDbLine
 10
26.2452
 20
-143.0458999999999
 30
0.0
 11
26.6586
 21
-144.0298999999999
 31
0.0
  0
LINE
  5
16A
330
1E
100
AcDbEntity
  8
default
  6
Continuous
 62
     1
100
AcDbLine
 10
-26.2452
 20
-143.0458999999999
 30
0.0
 11
-26.6586
 21
-144.0298999999999
 31
0.0
  0
LINE
  5
16B
330
1E
100
AcDbEntity
  8
default
  6
Continuous
 62
     1
100
AcDbLine
 10
26.6586
 20
-144.0298999999999
 30
0.0
 11
27.0645
 21
-145.0297999999999
 31
0.0
  0
LINE
  5
16C
330
1E
100
AcDbEntity
  8
default
  6
Continuous
 62
     1
100
AcDbLine
 10
-26.6586
 20
-144.0298999999999
 30
0.0
 11
-27.0645
 21
-145.0297999999999
 31
0.0
  0
LINE
  5
16D
330
1E
100
AcDbEntity
  8
default
  6
Continuous
 62
     1
100
AcDbLine
 10
27.0645
 20
-145.0297999999999
 30
0.0
 11
27.4627
 21
-146.0458
 31
0.0
  0
LINE
  5
16E
330
1E
100
AcDbEntity
  8
default
  6
Continuous
 62
     1
100
AcDbLine
 10
-27.0645
 20
-145.0297999999999
 30
0.0
 11
-27.4627
 21
-146.0458
 31
0.0
  0
LINE
  5
16F
330
1E
100
AcDbEntity
  8
default
  6
Continuous
 62
     1
100
AcDbLine
 10
27.4627
 20
-146.0458
 30
0.0
 11
27.8528
 21
-147.0777999999999
 31
0.0
  0
LINE
  5
170
330
1E
100
AcDbEntity
  8
default
  6
Continuous
 62
     1
100
AcDbLine
 10
-27.4627
 20
-146.0458
 30
0.0
 11
-27.8528
 21
-147.0777999999999
 31
0.0
  0
LINE
  5
171
330
1E
100
AcDbEntity
  8
default
  6
Continuous
 62
     1
100
AcDbLine
 10
27.8528
 20
-147.0777999999999
 30
0.0
 11
28.2345
 21
-148.1259
 31
0.0
  0
LINE
  5
172
330
1E
100
AcDbEntity
  8
default
  6
Continuous
 62
     1
100
AcDbLine
 10
-27.8528
 20
-147.0777999999999
 30
0.0
 11
-28.2345
 21
-148.1259
 31
0.0
  0
LINE
  5
173
330
1E
100
AcDbEntity
  8
default
  6
Continuous
 62
     1
100
AcDbLine
 10
28.2345
 20
-148.1259
 30
0.0
 11
28.6075
 21
-149.19
 31
0.0
  0
LINE
  5
174
330
1E
100
AcDbEntity
  8
default
  6
Continuous
 62
     1
100
AcDbLine
 10
-28.2345
 20
-148.1259
 30
0.0
 11
-28.6075
 21
-149.19
 31
0.0
  0
LINE
  5
175
330
1E
100
AcDbEntity
  8
default
  6
Continuous
 62
     1
100
AcDbLine
 10
28.6075
 20
-149.19
 30
0.0
 11
28.9717
 21
-150.2698999999999
 31
0.0
  0
LINE
  5
176
330
1E
100
AcDbEntity
  8
default
  6
Continuous
 62
     1
100
AcDbLine
 10
-28.6075
 20
-149.19
 30
0.0
 11
-28.9717
 21
-150.2698999999999
 31
0.0
  0
LINE
  5
177
330
1E
100
AcDbEntity
  8
default
  6
Continuous
 62
     1
100
AcDbLine
 10
28.9717
 20
-150.2698999999999
 30
0.0
 11
29.3266
 21
-151.3654999999999
 31
0.0
  0
LINE
  5
178
330
1E
100
AcDbEntity
  8
default
  6
Continuous
 62
     1
100
AcDbLine
 10
-28.9717
 20
-150.2698999999999
 30
0.0
 11
-29.3266
 21
-151.3654999999999
 31
0.0
  0
LINE
  5
179
330
1E
100
AcDbEntity
  8
default
  6
Continuous
 62
     1
100
AcDbLine
 10
29.3266
 20
-151.3654999999999
 30
0.0
 11
29.6721
 21
-152.4766999999999
 31
0.0
  0
LINE
  5
17A
330
1E
100
AcDbEntity
  8
default
  6
Continuous
 62
     1
100
AcDbLine
 10
-29.3266
 20
-151.3654999999999
 30
0.0
 11
-29.6721
 21
-152.4766999999999
 31
0.0
  0
LINE
  5
17B
330
1E
100
AcDbEntity
  8
default
  6
Continuous
 62
     1
100
AcDbLine
 10
29.6721
 20
-152.4766999999999
 30
0.0
 11
30.0079
 21
-153.6031
 31
0.0
  0
LINE
  5
17C
330
1E
100
AcDbEntity
  8
default
  6
Continuous
 62
     1
100
AcDbLine
 10
-29.6721
 20
-152.4766999999999
 30
0.0
 11
-30.0079
 21
-153.6031
 31
0.0
  0
LINE
  5
17D
330
1E
100
AcDbEntity
  8
default
  6
Continuous
 62
     1
100
AcDbLine
 10
30.0079
 20
-153.6031
 30
0.0
 11
30.3337
 21
-154.7445999999999
 31
0.0
  0
LINE
  5
17E
330
1E
100
AcDbEntity
  8
default
  6
Continuous
 62
     1
100
AcDbLine
 10
-30.0079
 20
-153.6031
 30
0.0
 11
-30.3337
 21
-154.7445999999999
 31
0.0
  0
LINE
  5
17F
330
1E
100
AcDbEntity
  8
default
  6
Continuous
 62
     1
100
AcDbLine
 10
30.3337
 20
-154.7445999999999
 30
0.0
 11
30.6493
 21
-155.9008
 31
0.0
  0
LINE
  5
180
330
1E
100
AcDbEntity
  8
default
  6
Continuous
 62
     1
100
AcDbLine
 10
-30.3337
 20
-154.7445999999999
 30
0.0
 11
-30.6493
 21
-155.9008
 31
0.0
  0
LINE
  5
181
330
1E
100
AcDbEntity
  8
default
  6
Continuous
 62
     1
100
AcDbLine
 10
30.6493
 20
-155.9008
 30
0.0
 11
30.95439999999999
 21
-157.0713
 31
0.0
  0
LINE
  5
182
330
1E
100
AcDbEntity
  8
default
  6
Continuous
 62
     1
100
AcDbLine
 10
-30.6493
 20
-155.9008
 30
0.0
 11
-30.95439999999999
 21
-157.0713
 31
0.0
  0
LINE
  5
183
330
1E
100
AcDbEntity
  8
default
  6
Continuous
 62
     1
100
AcDbLine
 10
30.95439999999999
 20
-157.0713
 30
0.0
 11
31.2489
 21
-158.2559
 31
0.0
  0
LINE
  5
184
330
1E
100
AcDbEntity
  8
default
  6
Continuous
 62
     1
100
AcDbLine
 10
-30.95439999999999
 20
-157.0713
 30
0.0
 11
-31.2489
 21
-158.2559
 31
0.0
  0
LINE
  5
185
330
1E
100
AcDbEntity
  8
default
  6
Continuous
 62
     1
100
AcDbLine
 10
31.2489
 20
-158.2559
 30
0.0
 11
31.53249999999999
 21
-159.4541999999999
 31
0.0
  0
LINE
  5
186
330
1E
100
AcDbEntity
  8
default
  6
Continuous
 62
     1
100
AcDbLine
 10
-31.2489
 20
-158.2559
 30
0.0
 11
-31.53249999999999
 21
-159.4541999999999
 31
0.0
  0
LINE
  5
187
330
1E
100
AcDbEntity
  8
default
  6
Continuous
 62
     1
100
AcDbLine
 10
31.53249999999999
 20
-159.4541999999999
 30
0.0
 11
31.805
 21
-160.6657
 31
0.0
  0
LINE
  5
188
330
1E
100
AcDbEntity
  8
default
  6
Continuous
 62
     1
100
AcDbLine
 10
-31.53249999999999
 20
-159.4541999999999
 30
0.0
 11
-31.805
 21
-160.6657
 31
0.0
  0
LINE
  5
189
330
1E
100
AcDbEntity
  8
default
  6
Continuous
 62
     1
100
AcDbLine
 10
31.805
 20
-160.6657
 30
0.0
 11
32.0663
 21
-161.8899
 31
0.0
  0
LINE
  5
18A
330
1E
100
AcDbEntity
  8
default
  6
Continuous
 62
     1
100
AcDbLine
 10
-31.805
 20
-160.6657
 30
0.0
 11
-32.0663
 21
-161.8899
 31
0.0
  0
LINE
  5
18B
330
1E
100
AcDbEntity
  8
default
  6
Continuous
 62
     1
100
AcDbLine
 10
32.0663
 20
-161.8899
 30
0.0
 11
32.316
 21
-163.1264999999999
 31
0.0
  0
LINE
  5
18C
330
1E
100
AcDbEntity
  8
default
  6
Continuous
 62
     1
100
AcDbLine
 10
-32.0663
 20
-161.8899
 30
0.0
 11
-32.316
 21
-163.1264999999999
 31
0.0
  0
LINE
  5
18D
330
1E
100
AcDbEntity
  8
default
  6
Continuous
 62
     1
100
AcDbLine
 10
32.316
 20
-163.1264999999999
 30
0.0
 11
32.55409999999999
 21
-164.375
 31
0.0
  0
LINE
  5
18E
330
1E
100
AcDbEntity
  8
default
  6
Continuous
 62
     1
100
AcDbLine
 10
-32.316
 20
-163.1264999999999
 30
0.0
 11
-32.55409999999999
 21
-164.375
 31
0.0
  0
LINE
  5
18F
330
1E
100
AcDbEntity
  8
default
  6
Continuous
 62
     1
100
AcDbLine
 10
32.55409999999999
 20
-164.375
 30
0.0
 11
32.78029999999999
 21
-165.6348
 31
0.0
  0
LINE
  5
190
330
1E
100
AcDbEntity
  8
default
  6
Continuous
 62
     1
100
AcDbLine
 10
-32.55409999999999
 20
-164.375
 30
0.0
 11
-32.78029999999999
 21
-165.6348
 31
0.0
  0
LINE
  5
191
330
1E
100
AcDbEntity
  8
default
  6
Continuous
 62
     1
100
AcDbLine
 10
32.78029999999999
 20
-165.6348
 30
0.0
 11
32.9945
 21
-166.9053
 31
0.0
  0
LINE
  5
192
330
1E
100
AcDbEntity
  8
default
  6
Continuous
 62
     1
100
AcDbLine
 10
-32.78029999999999
 20
-165.6348
 30
0.0
 11
-32.9945
 21
-166.9053
 31
0.0
  0
LINE
  5
193
330
1E
100
AcDbEntity
  8
default
  6
Continuous
 62
     1
100
AcDbLine
 10
32.9945
 20
-166.9053
 30
0.0
 11
33.1965
 21
-168.1862
 31
0.0
  0
LINE
  5
194
330
1E
100
AcDbEntity
  8
default
  6
Continuous
 62
     1
100
AcDbLine
 10
-32.9945
 20
-166.9053
 30
0.0
 11
-33.1965
 21
-168.1862
 31
0.0
  0
LINE
  5
195
330
1E
100
AcDbEntity
  8
default
  6
Continuous
 62
     1
100
AcDbLine
 10
33.1965
 20
-168.1862
 30
0.0
 11
33.3862
 21
-169.4766999999999
 31
0.0
  0
LINE
  5
196
330
1E
100
AcDbEntity
  8
default
  6
Continuous
 62
     1
100
AcDbLine
 10
-33.1965
 20
-168.1862
 30
0.0
 11
-33.3862
 21
-169.4766999999999
 31
0.0
  0
LINE
  5
197
330
1E
100
AcDbEntity
  8
default
  6
Continuous
 62
     1
100
AcDbLine
 10
33.3862
 20
-169.4766999999999
 30
0.0
 11
33.56349999999999
 21
-170.7764
 31
0.0
  0
LINE
  5
198
330
1E
100
AcDbEntity
  8
default
  6
Continuous
 62
     1
100
AcDbLine
 10
-33.3862
 20
-169.4766999999999
 30
0.0
 11
-33.56349999999999
 21
-170.7764
 31
0.0
  0
LINE
  5
199
330
1E
100
AcDbEntity
  8
default
  6
Continuous
 62
     1
100
AcDbLine
 10
33.56349999999999
 20
-170.7764
 30
0.0
 11
33.72809999999999
 21
-172.0845999999999
 31
0.0
  0
LINE
  5
19A
330
1E
100
AcDbEntity
  8
default
  6
Continuous
 62
     1
100
AcDbLine
 10
-33.56349999999999
 20
-170.7764
 30
0.0
 11
-33.72809999999999
 21
-172.0845999999999
 31
0.0
  0
LINE
  5
19B
330
1E
100
AcDbEntity
  8
default
  6
Continuous
 62
     1
100
AcDbLine
 10
33.72809999999999
 20
-172.0845999999999
 30
0.0
 11
33.88
 21
-173.4008
 31
0.0
  0
LINE
  5
19C
330
1E
100
AcDbEntity
  8
default
  6
Continuous
 62
     1
100
AcDbLine
 10
-33.72809999999999
 20
-172.0845999999999
 30
0.0
 11
-33.88
 21
-173.4008
 31
0.0
  0
LINE
  5
19D
330
1E
100
AcDbEntity
  8
default
  6
Continuous
 62
     1
100
AcDbLine
 10
33.88
 20
-173.4008
 30
0.0
 11
34.0191
 21
-174.7241999999999
 31
0.0
  0
LINE
  5
19E
330
1E
100
AcDbEntity
  8
default
  6
Continuous
 62
     1
100
AcDbLine
 10
-33.88
 20
-173.4008
 30
0.0
 11
-34.0191
 21
-174.7241999999999
 31
0.0
  0
LINE
  5
19F
330
1E
100
AcDbEntity
  8
default
  6
Continuous
 62
     1
100
AcDbLine
 10
34.0191
 20
-174.7241999999999
 30
0.0
 11
34.1453
 21
-176.0543
 31
0.0
  0
LINE
  5
1A0
330
1E
100
AcDbEntity
  8
default
  6
Continuous
 62
     1
100
AcDbLine
 10
-34.0191
 20
-174.7241999999999
 30
0.0
 11
-34.1453
 21
-176.0543
 31
0.0
  0
LINE
  5
1A1
330
1E
100
AcDbEntity
  8
default
  6
Continuous
 62
     1
100
AcDbLine
 10
34.1453
 20
-176.0543
 30
0.0
 11
34.2584
 21
-177.3905
 31
0.0
  0
LINE
  5
1A2
330
1E
100
AcDbEntity
  8
default
  6
Continuous
 62
     1
100
AcDbLine
 10
-34.1453
 20
-176.0543
 30
0.0
 11
-34.2584
 21
-177.3905
 31
0.0
  0
LINE
  5
1A3
330
1E
100
AcDbEntity
  8
default
  6
Continuous
 62
     1
100
AcDbLine
 10
34.2584
 20
-177.3905
 30
0.0
 11
34.3584
 21
-178.7321
 31
0.0
  0
LINE
  5
1A4
330
1E
100
AcDbEntity
  8
default
  6
Continuous
 62
     1
100
AcDbLine
 10
-34.2584
 20
-177.3905
 30
0.0
 11
-34.3584
 21
-178.7321
 31
0.0
  0
LINE
  5
1A5
330
1E
100
AcDbEntity
  8
default
  6
Continuous
 62
     1
100
AcDbLine
 10
34.3584
 20
-178.7321
 30
0.0
 11
34.4452
 21
-180.0783999999999
 31
0.0
  0
LINE
  5
1A6
330
1E
100
AcDbEntity
  8
default
  6
Continuous
 62
     1
100
AcDbLine
 10
-34.3584
 20
-178.7321
 30
0.0
 11
-34.4452
 21
-180.0783999999999
 31
0.0
  0
LINE
  5
1A7
330
1E
100
AcDbEntity
  8
default
  6
Continuous
 62
     1
100
AcDbLine
 10
34.4452
 20
-180.0783999999999
 30
0.0
 11
34.5188
 21
-181.4287999999999
 31
0.0
  0
LINE
  5
1A8
330
1E
100
AcDbEntity
  8
default
  6
Continuous
 62
     1
100
AcDbLine
 10
-34.4452
 20
-180.0783999999999
 30
0.0
 11
-34.5188
 21
-181.4287999999999
 31
0.0
  0
LINE
  5
1A9
330
1E
100
AcDbEntity
  8
default
  6
Continuous
 62
     1
100
AcDbLine
 10
34.5188
 20
-181.4287999999999
 30
0.0
 11
34.5791
 21
-182.7824999999999
 31
0.0
  0
LINE
  5
1AA
330
1E
100
AcDbEntity
  8
default
  6
Continuous
 62
     1
100
AcDbLine
 10
-34.5188
 20
-181.4287999999999
 30
0.0
 11
-34.5791
 21
-182.7824999999999
 31
0.0
  0
LINE
  5
1AB
330
1E
100
AcDbEntity
  8
default
  6
Continuous
 62
     1
100
AcDbLine
 10
34.5791
 20
-182.7824999999999
 30
0.0
 11
34.626
 21
-184.1391
 31
0.0
  0
LINE
  5
1AC
330
1E
100
AcDbEntity
  8
default
  6
Continuous
 62
     1
100
AcDbLine
 10
-34.5791
 20
-182.7824999999999
 30
0.0
 11
-34.626
 21
-184.1391
 31
0.0
  0
LINE
  5
1AD
330
1E
100
AcDbEntity
  8
default
  6
Continuous
 62
     1
100
AcDbLine
 10
34.626
 20
-184.1391
 30
0.0
 11
34.65959999999999
 21
-185.4976
 31
0.0
  0
LINE
  5
1AE
330
1E
100
AcDbEntity
  8
default
  6
Continuous
 62
     1
100
AcDbLine
 10
-34.626
 20
-184.1391
 30
0.0
 11
-34.65959999999999
 21
-185.4976
 31
0.0
  0
LINE
  5
1AF
330
1E
100
AcDbEntity
  8
default
  6
Continuous
 62
     1
100
AcDbLine
 10
34.65959999999999
 20
-185.4976
 30
0.0
 11
34.67969999999999
 21
-186.8574999999999
 31
0.0
  0
LINE
  5
1B0
330
1E
100
AcDbEntity
  8
default
  6
Continuous
 62
     1
100
AcDbLine
 10
-34.65959999999999
 20
-185.4976
 30
0.0
 11
-34.67969999999999
 21
-186.8574999999999
 31
0.0
  0
LINE
  5
1B1
330
1E
100
AcDbEntity
  8
default
  6
Continuous
 62
     1
100
AcDbLine
 10
34.67969999999999
 20
-186.8574999999999
 30
0.0
 11
34.6864
 21
-188.2182
 31
0.0
  0
LINE
  5
1B2
330
1E
100
AcDbEntity
  8
default
  6
Continuous
 62
     1
100
AcDbLine
 10
-34.67969999999999
 20
-186.8574999999999
 30
0.0
 11
-34.6864
 21
-188.2182
 31
0.0
  0
LINE
  5
1B3
330
1E
100
AcDbEntity
  8
default
  6
Continuous
 62
     1
100
AcDbLine
 10
34.6864
 20
-188.2182
 30
0.0
 11
-34.6864
 21
-188.2182
 31
0.0
  0
LINE
  5
1B4
330
1E
100
AcDbEntity
  8
default
  6
Continuous
 62
     1
100
AcDbLine
 10
56.5685
 20
-56.5685
 30
0.0
 11
57.6927
 21
-57.3995
 31
0.0
  0
LINE
  5
1B5
330
1E
100
AcDbEntity
  8
default
  6
Continuous
 62
     1
100
AcDbLine
 10
56.5685
 20
-56.5685
 30
0.0
 11
57.3995
 21
-57.6927
 31
0.0
  0
LINE
  5
1B6
330
1E
100
AcDbEntity
  8
default
  6
Continuous
 62
     1
100
AcDbLine
 10
57.6927
 20
-57.3995
 30
0.0
 11
58.8211
 21
-58.2175
 31
0.0
  0
LINE
  5
1B7
330
1E
100
AcDbEntity
  8
default
  6
Continuous
 62
     1
100
AcDbLine
 10
57.3995
 20
-57.6927
 30
0.0
 11
58.2175
 21
-58.8211
 31
0.0
  0
LINE
  5
1B8
330
1E
100
AcDbEntity
  8
default
  6
Continuous
 62
     1
100
AcDbLine
 10
58.8211
 20
-58.2175
 30
0.0
 11
59.95280000000001
 21
-59.0219
 31
0.0
  0
LINE
  5
1B9
330
1E
100
AcDbEntity
  8
default
  6
Continuous
 62
     1
100
AcDbLine
 10
58.2175
 20
-58.8211
 30
0.0
 11
59.0219
 21
-59.95280000000001
 31
0.0
  0
LINE
  5
1BA
330
1E
100
AcDbEntity
  8
default
  6
Continuous
 62
     1
100
AcDbLine
 10
59.95280000000001
 20
-59.0219
 30
0.0
 11
61.0871
 21
-59.8123
 31
0.0
  0
LINE
  5
1BB
330
1E
100
AcDbEntity
  8
default
  6
Continuous
 62
     1
100
AcDbLine
 10
59.0219
 20
-59.95280000000001
 30
0.0
 11
59.8123
 21
-61.0871
 31
0.0
  0
LINE
  5
1BC
330
1E
100
AcDbEntity
  8
default
  6
Continuous
 62
     1
100
AcDbLine
 10
61.0871
 20
-59.8123
 30
0.0
 11
62.22319999999999
 21
-60.5881
 31
0.0
  0
LINE
  5
1BD
330
1E
100
AcDbEntity
  8
default
  6
Continuous
 62
     1
100
AcDbLine
 10
59.8123
 20
-61.0871
 30
0.0
 11
60.5881
 21
-62.22319999999999
 31
0.0
  0
LINE
  5
1BE
330
1E
100
AcDbEntity
  8
default
  6
Continuous
 62
     1
100
AcDbLine
 10
62.22319999999999
 20
-60.5881
 30
0.0
 11
63.3603
 21
-61.34879999999999
 31
0.0
  0
LINE
  5
1BF
330
1E
100
AcDbEntity
  8
default
  6
Continuous
 62
     1
100
AcDbLine
 10
60.5881
 20
-62.22319999999999
 30
0.0
 11
61.34879999999999
 21
-63.3603
 31
0.0
  0
LINE
  5
1C0
330
1E
100
AcDbEntity
  8
default
  6
Continuous
 62
     1
100
AcDbLine
 10
63.3603
 20
-61.34879999999999
 30
0.0
 11
64.4977
 21
-62.0938
 31
0.0
  0
LINE
  5
1C1
330
1E
100
AcDbEntity
  8
default
  6
Continuous
 62
     1
100
AcDbLine
 10
61.34879999999999
 20
-63.3603
 30
0.0
 11
62.0938
 21
-64.4977
 31
0.0
  0
LINE
  5
1C2
330
1E
100
AcDbEntity
  8
default
  6
Continuous
 62
     1
100
AcDbLine
 10
64.4977
 20
-62.0938
 30
0.0
 11
65.6345
 21
-62.8228
 31
0.0
  0
LINE
  5
1C3
330
1E
100
AcDbEntity
  8
default
  6
Continuous
 62
     1
100
AcDbLine
 10
62.0938
 20
-64.4977
 30
0.0
 11
62.8228
 21
-65.6345
 31
0.0
  0
LINE
  5
1C4
330
1E
100
AcDbEntity
  8
default
  6
Continuous
 62
     1
100
AcDbLine
 10
65.6345
 20
-62.8228
 30
0.0
 11
66.76999999999999
 21
-63.53509999999999
 31
0.0
  0
LINE
  5
1C5
330
1E
100
AcDbEntity
  8
default
  6
Continuous
 62
     1
100
AcDbLine
 10
62.8228
 20
-65.6345
 30
0.0
 11
63.53509999999999
 21
-66.76999999999999
 31
0.0
  0
LINE
  5
1C6
330
1E
100
AcDbEntity
  8
default
  6
Continuous
 62
     1
100
AcDbLine
 10
66.76999999999999
 20
-63.53509999999999
 30
0.0
 11
67.9034
 21
-64.2305
 31
0.0
  0
LINE
  5
1C7
330
1E
100
AcDbEntity
  8
default
  6
Continuous
 62
     1
100
AcDbLine
 10
63.53509999999999
 20
-66.76999999999999
 30
0.0
 11
64.2305
 21
-67.9034
 31
0.0
  0
LINE
  5
1C8
330
1E
100
AcDbEntity
  8
default
  6
Continuous
 62
     1
100
AcDbLine
 10
67.9034
 20
-64.2305
 30
0.0
 11
69.0339
 21
-64.9084
 31
0.0
  0
LINE
  5
1C9
330
1E
100
AcDbEntity
  8
default
  6
Continuous
 62
     1
100
AcDbLine
 10
64.2305
 20
-67.9034
 30
0.0
 11
64.9084
 21
-69.0339
 31
0.0
  0
LINE
  5
1CA
330
1E
100
AcDbEntity
  8
default
  6
Continuous
 62
     1
100
AcDbLine
 10
69.0339
 20
-64.9084
 30
0.0
 11
70.161
 21
-65.5684
 31
0.0
  0
LINE
  5
1CB
330
1E
100
AcDbEntity
  8
default
  6
Continuous
 62
     1
100
AcDbLine
 10
64.9084
 20
-69.0339
 30
0.0
 11
65.5684
 21
-70.161
 31
0.0
  0
LINE
  5
1CC
330
1E
100
AcDbEntity
  8
default
  6
Continuous
 62
     1
100
AcDbLine
 10
70.161
 20
-65.5684
 30
0.0
 11
71.2837
 21
-66.21030000000001
 31
0.0
  0
LINE
  5
1CD
330
1E
100
AcDbEntity
  8
default
  6
Continuous
 62
     1
100
AcDbLine
 10
65.5684
 20
-70.161
 30
0.0
 11
66.21030000000001
 21
-71.2837
 31
0.0
  0
LINE
  5
1CE
330
1E
100
AcDbEntity
  8
default
  6
Continuous
 62
     1
100
AcDbLine
 10
71.2837
 20
-66.21030000000001
 30
0.0
 11
72.4014
 21
-66.8336
 31
0.0
  0
LINE
  5
1CF
330
1E
100
AcDbEntity
  8
default
  6
Continuous
 62
     1
100
AcDbLine
 10
66.21030000000001
 20
-71.2837
 30
0.0
 11
66.8336
 21
-72.4014
 31
0.0
  0
LINE
  5
1D0
330
1E
100
AcDbEntity
  8
default
  6
Continuous
 62
     1
100
AcDbLine
 10
72.4014
 20
-66.8336
 30
0.0
 11
73.51359999999999
 21
-67.438
 31
0.0
  0
LINE
  5
1D1
330
1E
100
AcDbEntity
  8
default
  6
Continuous
 62
     1
100
AcDbLine
 10
66.8336
 20
-72.4014
 30
0.0
 11
67.438
 21
-73.51359999999999
 31
0.0
  0
LINE
  5
1D2
330
1E
100
AcDbEntity
  8
default
  6
Continuous
 62
     1
100
AcDbLine
 10
73.51359999999999
 20
-67.438
 30
0.0
 11
74.6194
 21
-68.02330000000001
 31
0.0
  0
LINE
  5
1D3
330
1E
100
AcDbEntity
  8
default
  6
Continuous
 62
     1
100
AcDbLine
 10
67.438
 20
-73.51359999999999
 30
0.0
 11
68.02330000000001
 21
-74.6194
 31
0.0
  0
LINE
  5
1D4
330
1E
100
AcDbEntity
  8
default
  6
Continuous
 62
     1
100
AcDbLine
 10
74.6194
 20
-68.02330000000001
 30
0.0
 11
75.7183
 21
-68.58920000000001
 31
0.0
  0
LINE
  5
1D5
330
1E
100
AcDbEntity
  8
default
  6
Continuous
 62
     1
100
AcDbLine
 10
68.02330000000001
 20
-74.6194
 30
0.0
 11
68.58920000000001
 21
-75.7183
 31
0.0
  0
LINE
  5
1D6
330
1E
100
AcDbEntity
  8
default
  6
Continuous
 62
     1
100
AcDbLine
 10
75.7183
 20
-68.58920000000001
 30
0.0
 11
76.80970000000001
 21
-69.1356
 31
0.0
  0
LINE
  5
1D7
330
1E
100
AcDbEntity
  8
default
  6
Continuous
 62
     1
100
AcDbLine
 10
68.58920000000001
 20
-75.7183
 30
0.0
 11
69.1356
 21
-76.80970000000001
 31
0.0
  0
LINE
  5
1D8
330
1E
100
AcDbEntity
  8
default
  6
Continuous
 62
     1
100
AcDbLine
 10
76.80970000000001
 20
-69.1356
 30
0.0
 11
77.893
 21
-69.66219999999999
 31
0.0
  0
LINE
  5
1D9
330
1E
100
AcDbEntity
  8
default
  6
Continuous
 62
     1
100
AcDbLine
 10
69.1356
 20
-76.80970000000001
 30
0.0
 11
69.66219999999999
 21
-77.893
 31
0.0
  0
LINE
  5
1DA
330
1E
100
AcDbEntity
  8
default
  6
Continuous
 62
     1
100
AcDbLine
 10
77.893
 20
-69.66219999999999
 30
0.0
 11
78.96779999999999
 21
-70.1691
 31
0.0
  0
LINE
  5
1DB
330
1E
100
AcDbEntity
  8
default
  6
Continuous
 62
     1
100
AcDbLine
 10
69.66219999999999
 20
-77.893
 30
0.0
 11
70.1691
 21
-78.96779999999999
 31
0.0
  0
LINE
  5
1DC
330
1E
100
AcDbEntity
  8
default
  6
Continuous
 62
     1
100
AcDbLine
 10
78.96779999999999
 20
-70.1691
 30
0.0
 11
80.0336
 21
-70.65609999999999
 31
0.0
  0
LINE
  5
1DD
330
1E
100
AcDbEntity
  8
default
  6
Continuous
 62
     1
100
AcDbLine
 10
70.1691
 20
-78.96779999999999
 30
0.0
 11
70.65609999999999
 21
-80.0336
 31
0.0
  0
LINE
  5
1DE
330
1E
100
AcDbEntity
  8
default
  6
Continuous
 62
     1
100
AcDbLine
 10
80.0336
 20
-70.65609999999999
 30
0.0
 11
81.08999999999999
 21
-71.1233
 31
0.0
  0
LINE
  5
1DF
330
1E
100
AcDbEntity
  8
default
  6
Continuous
 62
     1
100
AcDbLine
 10
70.65609999999999
 20
-80.0336
 30
0.0
 11
71.1233
 21
-81.08999999999999
 31
0.0
  0
LINE
  5
1E0
330
1E
100
AcDbEntity
  8
default
  6
Continuous
 62
     1
100
AcDbLine
 10
81.08999999999999
 20
-71.1233
 30
0.0
 11
82.1366
 21
-71.5708
 31
0.0
  0
LINE
  5
1E1
330
1E
100
AcDbEntity
  8
default
  6
Continuous
 62
     1
100
AcDbLine
 10
71.1233
 20
-81.08999999999999
 30
0.0
 11
71.5708
 21
-82.1366
 31
0.0
  0
LINE
  5
1E2
330
1E
100
AcDbEntity
  8
default
  6
Continuous
 62
     1
100
AcDbLine
 10
82.1366
 20
-71.5708
 30
0.0
 11
83.1731
 21
-71.9987
 31
0.0
  0
LINE
  5
1E3
330
1E
100
AcDbEntity
  8
default
  6
Continuous
 62
     1
100
AcDbLine
 10
71.5708
 20
-82.1366
 30
0.0
 11
71.9987
 21
-83.1731
 31
0.0
  0
LINE
  5
1E4
330
1E
100
AcDbEntity
  8
default
  6
Continuous
 62
     1
100
AcDbLine
 10
83.1731
 20
-71.9987
 30
0.0
 11
84.19920000000001
 21
-72.40709999999999
 31
0.0
  0
LINE
  5
1E5
330
1E
100
AcDbEntity
  8
default
  6
Continuous
 62
     1
100
AcDbLine
 10
71.9987
 20
-83.1731
 30
0.0
 11
72.40709999999999
 21
-84.19920000000001
 31
0.0
  0
LINE
  5
1E6
330
1E
100
AcDbEntity
  8
default
  6
Continuous
 62
     1
100
AcDbLine
 10
84.19920000000001
 20
-72.40709999999999
 30
0.0
 11
85.2149
 21
-72.7965
 31
0.0
  0
LINE
  5
1E7
330
1E
100
AcDbEntity
  8
default
  6
Continuous
 62
     1
100
AcDbLine
 10
72.40709999999999
 20
-84.19920000000001
 30
0.0
 11
72.7965
 21
-85.2149
 31
0.0
  0
LINE
  5
1E8
330
1E
100
AcDbEntity
  8
default
  6
Continuous
 62
     1
100
AcDbLine
 10
85.2149
 20
-72.7965
 30
0.0
 11
86.2199
 21
-73.1671
 31
0.0
  0
LINE
  5
1E9
330
1E
100
AcDbEntity
  8
default
  6
Continuous
 62
     1
100
AcDbLine
 10
72.7965
 20
-85.2149
 30
0.0
 11
73.1671
 21
-86.2199
 31
0.0
  0
LINE
  5
1EA
330
1E
100
AcDbEntity
  8
default
  6
Continuous
 62
     1
100
AcDbLine
 10
86.2199
 20
-73.1671
 30
0.0
 11
87.21439999999999
 21
-73.5194
 31
0.0
  0
LINE
  5
1EB
330
1E
100
AcDbEntity
  8
default
  6
Continuous
 62
     1
100
AcDbLine
 10
73.1671
 20
-86.2199
 30
0.0
 11
73.5194
 21
-87.21439999999999
 31
0.0
  0
LINE
  5
1EC
330
1E
100
AcDbEntity
  8
default
  6
Continuous
 62
     1
100
AcDbLine
 10
87.21439999999999
 20
-73.5194
 30
0.0
 11
88.19819999999999
 21
-73.854
 31
0.0
  0
LINE
  5
1ED
330
1E
100
AcDbEntity
  8
default
  6
Continuous
 62
     1
100
AcDbLine
 10
73.5194
 20
-87.21439999999999
 30
0.0
 11
73.854
 21
-88.19819999999999
 31
0.0
  0
LINE
  5
1EE
330
1E
100
AcDbEntity
  8
default
  6
Continuous
 62
     1
100
AcDbLine
 10
88.19819999999999
 20
-73.854
 30
0.0
 11
89.1717
 21
-74.1714
 31
0.0
  0
LINE
  5
1EF
330
1E
100
AcDbEntity
  8
default
  6
Continuous
 62
     1
100
AcDbLine
 10
73.854
 20
-88.19819999999999
 30
0.0
 11
74.1714
 21
-89.1717
 31
0.0
  0
LINE
  5
1F0
330
1E
100
AcDbEntity
  8
default
  6
Continuous
 62
     1
100
AcDbLine
 10
89.1717
 20
-74.1714
 30
0.0
 11
90.1349
 21
-74.47239999999999
 31
0.0
  0
LINE
  5
1F1
330
1E
100
AcDbEntity
  8
default
  6
Continuous
 62
     1
100
AcDbLine
 10
74.1714
 20
-89.1717
 30
0.0
 11
74.47239999999999
 21
-90.1349
 31
0.0
  0
LINE
  5
1F2
330
1E
100
AcDbEntity
  8
default
  6
Continuous
 62
     1
100
AcDbLine
 10
90.1349
 20
-74.47239999999999
 30
0.0
 11
91.08830000000001
 21
-74.7577
 31
0.0
  0
LINE
  5
1F3
330
1E
100
AcDbEntity
  8
default
  6
Continuous
 62
     1
100
AcDbLine
 10
74.47239999999999
 20
-90.1349
 30
0.0
 11
74.7577
 21
-91.08830000000001
 31
0.0
  0
LINE
  5
1F4
330
1E
100
AcDbEntity
  8
default
  6
Continuous
 62
     1
100
AcDbLine
 10
91.08830000000001
 20
-74.7577
 30
0.0
 11
92.03219999999999
 21
-75.02849999999999
 31
0.0
  0
LINE
  5
1F5
330
1E
100
AcDbEntity
  8
default
  6
Continuous
 62
     1
100
AcDbLine
 10
74.7577
 20
-91.08830000000001
 30
0.0
 11
75.02849999999999
 21
-92.03219999999999
 31
0.0
  0
LINE
  5
1F6
330
1E
100
AcDbEntity
  8
default
  6
Continuous
 62
     1
100
AcDbLine
 10
92.03219999999999
 20
-75.02849999999999
 30
0.0
 11
92.9673
 21
-75.2855
 31
0.0
  0
LINE
  5
1F7
330
1E
100
AcDbEntity
  8
default
  6
Continuous
 62
     1
100
AcDbLine
 10
75.02849999999999
 20
-92.03219999999999
 30
0.0
 11
75.2855
 21
-92.9673
 31
0.0
  0
LINE
  5
1F8
330
1E
100
AcDbEntity
  8
default
  6
Continuous
 62
     1
100
AcDbLine
 10
92.9673
 20
-75.2855
 30
0.0
 11
93.894
 21
-75.5301
 31
0.0
  0
LINE
  5
1F9
330
1E
100
AcDbEntity
  8
default
  6
Continuous
 62
     1
100
AcDbLine
 10
75.2855
 20
-92.9673
 30
0.0
 11
75.5301
 21
-93.894
 31
0.0
  0
LINE
  5
1FA
330
1E
100
AcDbEntity
  8
default
  6
Continuous
 62
     1
100
AcDbLine
 10
93.894
 20
-75.5301
 30
0.0
 11
94.81329999999999
 21
-75.7633
 31
0.0
  0
LINE
  5
1FB
330
1E
100
AcDbEntity
  8
default
  6
Continuous
 62
     1
100
AcDbLine
 10
75.5301
 20
-93.894
 30
0.0
 11
75.7633
 21
-94.81329999999999
 31
0.0
  0
LINE
  5
1FC
330
1E
100
AcDbEntity
  8
default
  6
Continuous
 62
     1
100
AcDbLine
 10
94.81329999999999
 20
-75.7633
 30
0.0
 11
95.7258
 21
-75.98659999999999
 31
0.0
  0
LINE
  5
1FD
330
1E
100
AcDbEntity
  8
default
  6
Continuous
 62
     1
100
AcDbLine
 10
75.7633
 20
-94.81329999999999
 30
0.0
 11
75.98659999999999
 21
-95.7258
 31
0.0
  0
LINE
  5
1FE
330
1E
100
AcDbEntity
  8
default
  6
Continuous
 62
     1
100
AcDbLine
 10
95.7258
 20
-75.98659999999999
 30
0.0
 11
96.63240000000001
 21
-76.20140000000001
 31
0.0
  0
LINE
  5
1FF
330
1E
100
AcDbEntity
  8
default
  6
Continuous
 62
     1
100
AcDbLine
 10
75.98659999999999
 20
-95.7258
 30
0.0
 11
76.20140000000001
 21
-96.63240000000001
 31
0.0
  0
LINE
  5
200
330
1E
100
AcDbEntity
  8
default
  6
Continuous
 62
     1
100
AcDbLine
 10
96.63240000000001
 20
-76.20140000000001
 30
0.0
 11
97.53430000000001
 21
-76.40909999999999
 31
0.0
  0
LINE
  5
201
330
1E
100
AcDbEntity
  8
default
  6
Continuous
 62
     1
100
AcDbLine
 10
76.20140000000001
 20
-96.63240000000001
 30
0.0
 11
76.40909999999999
 21
-97.53430000000001
 31
0.0
  0
LINE
  5
202
330
1E
100
AcDbEntity
  8
default
  6
Continuous
 62
     1
100
AcDbLine
 10
97.53430000000001
 20
-76.40909999999999
 30
0.0
 11
98.4323
 21
-76.61129999999999
 31
0.0
  0
LINE
  5
203
330
1E
100
AcDbEntity
  8
default
  6
Continuous
 62
     1
100
AcDbLine
 10
76.40909999999999
 20
-97.53430000000001
 30
0.0
 11
76.61129999999999
 21
-98.4323
 31
0.0
  0
LINE
  5
204
330
1E
100
AcDbEntity
  8
default
  6
Continuous
 62
     1
100
AcDbLine
 10
98.4323
 20
-76.61129999999999
 30
0.0
 11
99.32769999999999
 21
-76.80970000000001
 31
0.0
  0
LINE
  5
205
330
1E
100
AcDbEntity
  8
default
  6
Continuous
 62
     1
100
AcDbLine
 10
76.61129999999999
 20
-98.4323
 30
0.0
 11
76.80970000000001
 21
-99.32769999999999
 31
0.0
  0
LINE
  5
206
330
1E
100
AcDbEntity
  8
default
  6
Continuous
 62
     1
100
AcDbLine
 10
99.32769999999999
 20
-76.80970000000001
 30
0.0
 11
100.2215999999999
 21
-77.0059
 31
0.0
  0
LINE
  5
207
330
1E
100
AcDbEntity
  8
default
  6
Continuous
 62
     1
100
AcDbLine
 10
76.80970000000001
 20
-99.32769999999999
 30
0.0
 11
77.0059
 21
-100.2215999999999
 31
0.0
  0
LINE
  5
208
330
1E
100
AcDbEntity
  8
default
  6
Continuous
 62
     1
100
AcDbLine
 10
100.2215999999999
 20
-77.0059
 30
0.0
 11
101.1150999999999
 21
-77.2017
 31
0.0
  0
LINE
  5
209
330
1E
100
AcDbEntity
  8
default
  6
Continuous
 62
     1
100
AcDbLine
 10
77.0059
 20
-100.2215999999999
 30
0.0
 11
77.2017
 21
-101.1150999999999
 31
0.0
  0
LINE
  5
20A
330
1E
100
AcDbEntity
  8
default
  6
Continuous
 62
     1
100
AcDbLine
 10
101.1150999999999
 20
-77.2017
 30
0.0
 11
102.0091
 21
-77.3982
 31
0.0
  0
LINE
  5
20B
330
1E
100
AcDbEntity
  8
default
  6
Continuous
 62
     1
100
AcDbLine
 10
77.2017
 20
-101.1150999999999
 30
0.0
 11
77.3982
 21
-102.0091
 31
0.0
  0
LINE
  5
20C
330
1E
100
AcDbEntity
  8
default
  6
Continuous
 62
     1
100
AcDbLine
 10
102.0091
 20
-77.3982
 30
0.0
 11
102.9041
 21
-77.5966
 31
0.0
  0
LINE
  5
20D
330
1E
100
AcDbEntity
  8
default
  6
Continuous
 62
     1
100
AcDbLine
 10
77.3982
 20
-102.0091
 30
0.0
 11
77.5966
 21
-102.9041
 31
0.0
  0
LINE
  5
20E
330
1E
100
AcDbEntity
  8
default
  6
Continuous
 62
     1
100
AcDbLine
 10
102.9041
 20
-77.5966
 30
0.0
 11
103.8007
 21
-77.79810000000001
 31
0.0
  0
LINE
  5
20F
330
1E
100
AcDbEntity
  8
default
  6
Continuous
 62
     1
100
AcDbLine
 10
77.5966
 20
-102.9041
 30
0.0
 11
77.79810000000001
 21
-103.8007
 31
0.0
  0
LINE
  5
210
330
1E
100
AcDbEntity
  8
default
  6
Continuous
 62
     1
100
AcDbLine
 10
103.8007
 20
-77.79810000000001
 30
0.0
 11
104.6993999999999
 21
-78.00360000000001
 31
0.0
  0
LINE
  5
211
330
1E
100
AcDbEntity
  8
default
  6
Continuous
 62
     1
100
AcDbLine
 10
77.79810000000001
 20
-103.8007
 30
0.0
 11
78.00360000000001
 21
-104.6993999999999
 31
0.0
  0
LINE
  5
212
330
1E
100
AcDbEntity
  8
default
  6
Continuous
 62
     1
100
AcDbLine
 10
104.6993999999999
 20
-78.00360000000001
 30
0.0
 11
105.6008999999999
 21
-78.21429999999999
 31
0.0
  0
LINE
  5
213
330
1E
100
AcDbEntity
  8
default
  6
Continuous
 62
     1
100
AcDbLine
 10
78.00360000000001
 20
-104.6993999999999
 30
0.0
 11
78.21429999999999
 21
-105.6008999999999
 31
0.0
  0
LINE
  5
214
330
1E
100
AcDbEntity
  8
default
  6
Continuous
 62
     1
100
AcDbLine
 10
105.6008999999999
 20
-78.21429999999999
 30
0.0
 11
106.5056
 21
-78.4311
 31
0.0
  0
LINE
  5
215
330
1E
100
AcDbEntity
  8
default
  6
Continuous
 62
     1
100
AcDbLine
 10
78.21429999999999
 20
-105.6008999999999
 30
0.0
 11
78.4311
 21
-106.5056
 31
0.0
  0
LINE
  5
216
330
1E
100
AcDbEntity
  8
default
  6
Continuous
 62
     1
100
AcDbLine
 10
106.5056
 20
-78.4311
 30
0.0
 11
107.414
 21
-78.6551
 31
0.0
  0
LINE
  5
217
330
1E
100
AcDbEntity
  8
default
  6
Continuous
 62
     1
100
AcDbLine
 10
78.4311
 20
-106.5056
 30
0.0
 11
78.6551
 21
-107.414
 31
0.0
  0
LINE
  5
218
330
1E
100
AcDbEntity
  8
default
  6
Continuous
 62
     1
100
AcDbLine
 10
107.414
 20
-78.6551
 30
0.0
 11
108.3264999999999
 21
-78.88720000000001
 31
0.0
  0
LINE
  5
219
330
1E
100
AcDbEntity
  8
default
  6
Continuous
 62
     1
100
AcDbLine
 10
78.6551
 20
-107.414
 30
0.0
 11
78.88720000000001
 21
-108.3264999999999
 31
0.0
  0
LINE
  5
21A
330
1E
100
AcDbEntity
  8
default
  6
Continuous
 62
     1
100
AcDbLine
 10
108.3264999999999
 20
-78.88720000000001
 30
0.0
 11
109.2435999999999
 21
-79.1284
 31
0.0
  0
LINE
  5
21B
330
1E
100
AcDbEntity
  8
default
  6
Continuous
 62
     1
100
AcDbLine
 10
78.88720000000001
 20
-108.3264999999999
 30
0.0
 11
79.1284
 21
-109.2435999999999
 31
0.0
  0
LINE
  5
21C
330
1E
100
AcDbEntity
  8
default
  6
Continuous
 62
     1
100
AcDbLine
 10
109.2435999999999
 20
-79.1284
 30
0.0
 11
110.1657
 21
-79.37940000000001
 31
0.0
  0
LINE
  5
21D
330
1E
100
AcDbEntity
  8
default
  6
Continuous
 62
     1
100
AcDbLine
 10
79.1284
 20
-109.2435999999999
 30
0.0
 11
79.37940000000001
 21
-110.1657
 31
0.0
  0
LINE
  5
21E
330
1E
100
AcDbEntity
  8
default
  6
Continuous
 62
     1
100
AcDbLine
 10
110.1657
 20
-79.37940000000001
 30
0.0
 11
111.0929999999999
 21
-79.64109999999999
 31
0.0
  0
LINE
  5
21F
330
1E
100
AcDbEntity
  8
default
  6
Continuous
 62
     1
100
AcDbLine
 10
79.37940000000001
 20
-110.1657
 30
0.0
 11
79.64109999999999
 21
-111.0929999999999
 31
0.0
  0
LINE
  5
220
330
1E
100
AcDbEntity
  8
default
  6
Continuous
 62
     1
100
AcDbLine
 10
111.0929999999999
 20
-79.64109999999999
 30
0.0
 11
112.0257999999999
 21
-79.9144
 31
0.0
  0
LINE
  5
221
330
1E
100
AcDbEntity
  8
default
  6
Continuous
 62
     1
100
AcDbLine
 10
79.64109999999999
 20
-111.0929999999999
 30
0.0
 11
79.9144
 21
-112.0257999999999
 31
0.0
  0
LINE
  5
222
330
1E
100
AcDbEntity
  8
default
  6
Continuous
 62
     1
100
AcDbLine
 10
112.0257999999999
 20
-79.9144
 30
0.0
 11
112.9644
 21
-80.1998
 31
0.0
  0
LINE
  5
223
330
1E
100
AcDbEntity
  8
default
  6
Continuous
 62
     1
100
AcDbLine
 10
79.9144
 20
-112.0257999999999
 30
0.0
 11
80.1998
 21
-112.9644
 31
0.0
  0
LINE
  5
224
330
1E
100
AcDbEntity
  8
default
  6
Continuous
 62
     1
100
AcDbLine
 10
112.9644
 20
-80.1998
 30
0.0
 11
113.9089
 21
-80.4982
 31
0.0
  0
LINE
  5
225
330
1E
100
AcDbEntity
  8
default
  6
Continuous
 62
     1
100
AcDbLine
 10
80.1998
 20
-112.9644
 30
0.0
 11
80.4982
 21
-113.9089
 31
0.0
  0
LINE
  5
226
330
1E
100
AcDbEntity
  8
default
  6
Continuous
 62
     1
100
AcDbLine
 10
113.9089
 20
-80.4982
 30
0.0
 11
114.8595999999999
 21
-80.81000000000001
 31
0.0
  0
LINE
  5
227
330
1E
100
AcDbEntity
  8
default
  6
Continuous
 62
     1
100
AcDbLine
 10
80.4982
 20
-113.9089
 30
0.0
 11
80.81000000000001
 21
-114.8595999999999
 31
0.0
  0
LINE
  5
228
330
1E
100
AcDbEntity
  8
default
  6
Continuous
 62
     1
100
AcDbLine
 10
114.8595999999999
 20
-80.81000000000001
 30
0.0
 11
115.8165
 21
-81.13599999999999
 31
0.0
  0
LINE
  5
229
330
1E
100
AcDbEntity
  8
default
  6
Continuous
 62
     1
100
AcDbLine
 10
80.81000000000001
 20
-114.8595999999999
 30
0.0
 11
81.13599999999999
 21
-115.8165
 31
0.0
  0
LINE
  5
22A
330
1E
100
AcDbEntity
  8
default
  6
Continuous
 62
     1
100
AcDbLine
 10
115.8165
 20
-81.13599999999999
 30
0.0
 11
116.7796999999999
 21
-81.4765
 31
0.0
  0
LINE
  5
22B
330
1E
100
AcDbEntity
  8
default
  6
Continuous
 62
     1
100
AcDbLine
 10
81.13599999999999
 20
-115.8165
 30
0.0
 11
81.4765
 21
-116.7796999999999
 31
0.0
  0
LINE
  5
22C
330
1E
100
AcDbEntity
  8
default
  6
Continuous
 62
     1
100
AcDbLine
 10
116.7796999999999
 20
-81.4765
 30
0.0
 11
117.7491
 21
-81.8322
 31
0.0
  0
LINE
  5
22D
330
1E
100
AcDbEntity
  8
default
  6
Continuous
 62
     1
100
AcDbLine
 10
81.4765
 20
-116.7796999999999
 30
0.0
 11
81.8322
 21
-117.7491
 31
0.0
  0
LINE
  5
22E
330
1E
100
AcDbEntity
  8
default
  6
Continuous
 62
     1
100
AcDbLine
 10
117.7491
 20
-81.8322
 30
0.0
 11
118.7248999999999
 21
-82.2034
 31
0.0
  0
LINE
  5
22F
330
1E
100
AcDbEntity
  8
default
  6
Continuous
 62
     1
100
AcDbLine
 10
81.8322
 20
-117.7491
 30
0.0
 11
82.2034
 21
-118.7248999999999
 31
0.0
  0
LINE
  5
230
330
1E
100
AcDbEntity
  8
default
  6
Continuous
 62
     1
100
AcDbLine
 10
118.7248999999999
 20
-82.2034
 30
0.0
 11
119.7069
 21
-82.59059999999999
 31
0.0
  0
LINE
  5
231
330
1E
100
AcDbEntity
  8
default
  6
Continuous
 62
     1
100
AcDbLine
 10
82.2034
 20
-118.7248999999999
 30
0.0
 11
82.59059999999999
 21
-119.7069
 31
0.0
  0
LINE
  5
232
330
1E
100
AcDbEntity
  8
default
  6
Continuous
 62
     1
100
AcDbLine
 10
119.7069
 20
-82.59059999999999
 30
0.0
 11
120.6949999999999
 21
-82.994
 31
0.0
  0
LINE
  5
233
330
1E
100
AcDbEntity
  8
default
  6
Continuous
 62
     1
100
AcDbLine
 10
82.59059999999999
 20
-119.7069
 30
0.0
 11
82.994
 21
-120.6949999999999
 31
0.0
  0
LINE
  5
234
330
1E
100
AcDbEntity
  8
default
  6
Continuous
 62
     1
100
AcDbLine
 10
120.6949999999999
 20
-82.994
 30
0.0
 11
121.6890999999999
 21
-83.414
 31
0.0
  0
LINE
  5
235
330
1E
100
AcDbEntity
  8
default
  6
Continuous
 62
     1
100
AcDbLine
 10
82.994
 20
-120.6949999999999
 30
0.0
 11
83.414
 21
-121.6890999999999
 31
0.0
  0
LINE
  5
236
330
1E
100
AcDbEntity
  8
default
  6
Continuous
 62
     1
100
AcDbLine
 10
121.6890999999999
 20
-83.414
 30
0.0
 11
122.689
 21
-83.85089999999999
 31
0.0
  0
LINE
  5
237
330
1E
100
AcDbEntity
  8
default
  6
Continuous
 62
     1
100
AcDbLine
 10
83.414
 20
-121.6890999999999
 30
0.0
 11
83.85089999999999
 21
-122.689
 31
0.0
  0
LINE
  5
238
330
1E
100
AcDbEntity
  8
default
  6
Continuous
 62
     1
100
AcDbLine
 10
122.689
 20
-83.85089999999999
 30
0.0
 11
123.6945999999999
 21
-84.3049
 31
0.0
  0
LINE
  5
239
330
1E
100
AcDbEntity
  8
default
  6
Continuous
 62
     1
100
AcDbLine
 10
83.85089999999999
 20
-122.689
 30
0.0
 11
84.3049
 21
-123.6945999999999
 31
0.0
  0
LINE
  5
23A
330
1E
100
AcDbEntity
  8
default
  6
Continuous
 62
     1
100
AcDbLine
 10
123.6945999999999
 20
-84.3049
 30
0.0
 11
124.7056
 21
-84.7761
 31
0.0
  0
LINE
  5
23B
330
1E
100
AcDbEntity
  8
default
  6
Continuous
 62
     1
100
AcDbLine
 10
84.3049
 20
-123.6945999999999
 30
0.0
 11
84.7761
 21
-124.7056
 31
0.0
  0
LINE
  5
23C
330
1E
100
AcDbEntity
  8
default
  6
Continuous
 62
     1
100
AcDbLine
 10
124.7056
 20
-84.7761
 30
0.0
 11
125.7217999999999
 21
-85.26470000000001
 31
0.0
  0
LINE
  5
23D
330
1E
100
AcDbEntity
  8
default
  6
Continuous
 62
     1
100
AcDbLine
 10
84.7761
 20
-124.7056
 30
0.0
 11
85.26470000000001
 21
-125.7217999999999
 31
0.0
  0
LINE
  5
23E
330
1E
100
AcDbEntity
  8
default
  6
Continuous
 62
     1
100
AcDbLine
 10
125.7217999999999
 20
-85.26470000000001
 30
0.0
 11
126.7429
 21
-85.7708
 31
0.0
  0
LINE
  5
23F
330
1E
100
AcDbEntity
  8
default
  6
Continuous
 62
     1
100
AcDbLine
 10
85.26470000000001
 20
-125.7217999999999
 30
0.0
 11
85.7708
 21
-126.7429
 31
0.0
  0
LINE
  5
240
330
1E
100
AcDbEntity
  8
default
  6
Continuous
 62
     1
100
AcDbLine
 10
126.7429
 20
-85.7708
 30
0.0
 11
127.7686
 21
-86.29459999999999
 31
0.0
  0
LINE
  5
241
330
1E
100
AcDbEntity
  8
default
  6
Continuous
 62
     1
100
AcDbLine
 10
85.7708
 20
-126.7429
 30
0.0
 11
86.29459999999999
 21
-127.7686
 31
0.0
  0
LINE
  5
242
330
1E
100
AcDbEntity
  8
default
  6
Continuous
 62
     1
100
AcDbLine
 10
127.7686
 20
-86.29459999999999
 30
0.0
 11
128.7985999999999
 21
-86.836
 31
0.0
  0
LINE
  5
243
330
1E
100
AcDbEntity
  8
default
  6
Continuous
 62
     1
100
AcDbLine
 10
86.29459999999999
 20
-127.7686
 30
0.0
 11
86.836
 21
-128.7985999999999
 31
0.0
  0
LINE
  5
244
330
1E
100
AcDbEntity
  8
default
  6
Continuous
 62
     1
100
AcDbLine
 10
128.7985999999999
 20
-86.836
 30
0.0
 11
129.8326
 21
-87.3951
 31
0.0
  0
LINE
  5
245
330
1E
100
AcDbEntity
  8
default
  6
Continuous
 62
     1
100
AcDbLine
 10
86.836
 20
-128.7985999999999
 30
0.0
 11
87.3951
 21
-129.8326
 31
0.0
  0
LINE
  5
246
330
1E
100
AcDbEntity
  8
default
  6
Continuous
 62
     1
100
AcDbLine
 10
129.8326
 20
-87.3951
 30
0.0
 11
130.8701
 21
-87.9718
 31
0.0
  0
LINE
  5
247
330
1E
100
AcDbEntity
  8
default
  6
Continuous
 62
     1
100
AcDbLine
 10
87.3951
 20
-129.8326
 30
0.0
 11
87.9718
 21
-130.8701
 31
0.0
  0
LINE
  5
248
330
1E
100
AcDbEntity
  8
default
  6
Continuous
 62
     1
100
AcDbLine
 10
130.8701
 20
-87.9718
 30
0.0
 11
131.9107999999999
 21
-88.56619999999999
 31
0.0
  0
LINE
  5
249
330
1E
100
AcDbEntity
  8
default
  6
Continuous
 62
     1
100
AcDbLine
 10
87.9718
 20
-130.8701
 30
0.0
 11
88.56619999999999
 21
-131.9107999999999
 31
0.0
  0
LINE
  5
24A
330
1E
100
AcDbEntity
  8
default
  6
Continuous
 62
     1
100
AcDbLine
 10
131.9107999999999
 20
-88.56619999999999
 30
0.0
 11
132.9542999999999
 21
-89.17810000000001
 31
0.0
  0
LINE
  5
24B
330
1E
100
AcDbEntity
  8
default
  6
Continuous
 62
     1
100
AcDbLine
 10
88.56619999999999
 20
-131.9107999999999
 30
0.0
 11
89.17810000000001
 21
-132.9542999999999
 31
0.0
  0
LINE
  5
24C
330
1E
100
AcDbEntity
  8
default
  6
Continuous
 62
     1
100
AcDbLine
 10
132.9542999999999
 20
-89.17810000000001
 30
0.0
 11
134.0002
 21
-89.8075
 31
0.0
  0
LINE
  5
24D
330
1E
100
AcDbEntity
  8
default
  6
Continuous
 62
     1
100
AcDbLine
 10
89.17810000000001
 20
-132.9542999999999
 30
0.0
 11
89.8075
 21
-134.0002
 31
0.0
  0
LINE
  5
24E
330
1E
100
AcDbEntity
  8
default
  6
Continuous
 62
     1
100
AcDbLine
 10
134.0002
 20
-89.8075
 30
0.0
 11
135.048
 21
-90.45430000000001
 31
0.0
  0
LINE
  5
24F
330
1E
100
AcDbEntity
  8
default
  6
Continuous
 62
     1
100
AcDbLine
 10
89.8075
 20
-134.0002
 30
0.0
 11
90.45430000000001
 21
-135.048
 31
0.0
  0
LINE
  5
250
330
1E
100
AcDbEntity
  8
default
  6
Continuous
 62
     1
100
AcDbLine
 10
135.048
 20
-90.45430000000001
 30
0.0
 11
136.0973999999999
 21
-91.11819999999999
 31
0.0
  0
LINE
  5
251
330
1E
100
AcDbEntity
  8
default
  6
Continuous
 62
     1
100
AcDbLine
 10
90.45430000000001
 20
-135.048
 30
0.0
 11
91.11819999999999
 21
-136.0973999999999
 31
0.0
  0
LINE
  5
252
330
1E
100
AcDbEntity
  8
default
  6
Continuous
 62
     1
100
AcDbLine
 10
136.0973999999999
 20
-91.11819999999999
 30
0.0
 11
137.1477999999999
 21
-91.7992
 31
0.0
  0
LINE
  5
253
330
1E
100
AcDbEntity
  8
default
  6
Continuous
 62
     1
100
AcDbLine
 10
91.11819999999999
 20
-136.0973999999999
 30
0.0
 11
91.7992
 21
-137.1477999999999
 31
0.0
  0
LINE
  5
254
330
1E
100
AcDbEntity
  8
default
  6
Continuous
 62
     1
100
AcDbLine
 10
137.1477999999999
 20
-91.7992
 30
0.0
 11
138.1987999999999
 21
-92.497
 31
0.0
  0
LINE
  5
255
330
1E
100
AcDbEntity
  8
default
  6
Continuous
 62
     1
100
AcDbLine
 10
91.7992
 20
-137.1477999999999
 30
0.0
 11
92.497
 21
-138.1987999999999
 31
0.0
  0
LINE
  5
256
330
1E
100
AcDbEntity
  8
default
  6
Continuous
 62
     1
100
AcDbLine
 10
138.1987999999999
 20
-92.497
 30
0.0
 11
139.2498999999999
 21
-93.21150000000001
 31
0.0
  0
LINE
  5
257
330
1E
100
AcDbEntity
  8
default
  6
Continuous
 62
     1
100
AcDbLine
 10
92.497
 20
-138.1987999999999
 30
0.0
 11
93.21150000000001
 21
-139.2498999999999
 31
0.0
  0
LINE
  5
258
330
1E
100
AcDbEntity
  8
default
  6
Continuous
 62
     1
100
AcDbLine
 10
139.2498999999999
 20
-93.21150000000001
 30
0.0
 11
140.3005999999999
 21
-93.9423
 31
0.0
  0
LINE
  5
259
330
1E
100
AcDbEntity
  8
default
  6
Continuous
 62
     1
100
AcDbLine
 10
93.21150000000001
 20
-139.2498999999999
 30
0.0
 11
93.9423
 21
-140.3005999999999
 31
0.0
  0
LINE
  5
25A
330
1E
100
AcDbEntity
  8
default
  6
Continuous
 62
     1
100
AcDbLine
 10
140.3005999999999
 20
-93.9423
 30
0.0
 11
141.3505
 21
-94.6893
 31
0.0
  0
LINE
  5
25B
330
1E
100
AcDbEntity
  8
default
  6
Continuous
 62
     1
100
AcDbLine
 10
93.9423
 20
-140.3005999999999
 30
0.0
 11
94.6893
 21
-141.3505
 31
0.0
  0
LINE
  5
25C
330
1E
100
AcDbEntity
  8
default
  6
Continuous
 62
     1
100
AcDbLine
 10
141.3505
 20
-94.6893
 30
0.0
 11
142.3991
 21
-95.4521
 31
0.0
  0
LINE
  5
25D
330
1E
100
AcDbEntity
  8
default
  6
Continuous
 62
     1
100
AcDbLine
 10
94.6893
 20
-141.3505
 30
0.0
 11
95.4521
 21
-142.3991
 31
0.0
  0
LINE
  5
25E
330
1E
100
AcDbEntity
  8
default
  6
Continuous
 62
     1
100
AcDbLine
 10
142.3991
 20
-95.4521
 30
0.0
 11
143.4458
 21
-96.2305
 31
0.0
  0
LINE
  5
25F
330
1E
100
AcDbEntity
  8
default
  6
Continuous
 62
     1
100
AcDbLine
 10
95.4521
 20
-142.3991
 30
0.0
 11
96.2305
 21
-143.4458
 31
0.0
  0
LINE
  5
260
330
1E
100
AcDbEntity
  8
default
  6
Continuous
 62
     1
100
AcDbLine
 10
143.4458
 20
-96.2305
 30
0.0
 11
144.4901
 21
-97.0242
 31
0.0
  0
LINE
  5
261
330
1E
100
AcDbEntity
  8
default
  6
Continuous
 62
     1
100
AcDbLine
 10
96.2305
 20
-143.4458
 30
0.0
 11
97.0242
 21
-144.4901
 31
0.0
  0
LINE
  5
262
330
1E
100
AcDbEntity
  8
default
  6
Continuous
 62
     1
100
AcDbLine
 10
144.4901
 20
-97.0242
 30
0.0
 11
145.5316
 21
-97.83280000000001
 31
0.0
  0
LINE
  5
263
330
1E
100
AcDbEntity
  8
default
  6
Continuous
 62
     1
100
AcDbLine
 10
97.0242
 20
-144.4901
 30
0.0
 11
97.83280000000001
 21
-145.5316
 31
0.0
  0
LINE
  5
264
330
1E
100
AcDbEntity
  8
default
  6
Continuous
 62
     1
100
AcDbLine
 10
145.5316
 20
-97.83280000000001
 30
0.0
 11
146.5696
 21
-98.6561
 31
0.0
  0
LINE
  5
265
330
1E
100
AcDbEntity
  8
default
  6
Continuous
 62
     1
100
AcDbLine
 10
97.83280000000001
 20
-145.5316
 30
0.0
 11
98.6561
 21
-146.5696
 31
0.0
  0
LINE
  5
266
330
1E
100
AcDbEntity
  8
default
  6
Continuous
 62
     1
100
AcDbLine
 10
146.5696
 20
-98.6561
 30
0.0
 11
147.6038
 21
-99.4935
 31
0.0
  0
LINE
  5
267
330
1E
100
AcDbEntity
  8
default
  6
Continuous
 62
     1
100
AcDbLine
 10
98.6561
 20
-146.5696
 30
0.0
 11
99.4935
 21
-147.6038
 31
0.0
  0
LINE
  5
268
330
1E
100
AcDbEntity
  8
default
  6
Continuous
 62
     1
100
AcDbLine
 10
147.6038
 20
-99.4935
 30
0.0
 11
148.6336
 21
-100.3449
 31
0.0
  0
LINE
  5
269
330
1E
100
AcDbEntity
  8
default
  6
Continuous
 62
     1
100
AcDbLine
 10
99.4935
 20
-147.6038
 30
0.0
 11
100.3449
 21
-148.6336
 31
0.0
  0
LINE
  5
26A
330
1E
100
AcDbEntity
  8
default
  6
Continuous
 62
     1
100
AcDbLine
 10
148.6336
 20
-100.3449
 30
0.0
 11
149.6584
 21
-101.2097
 31
0.0
  0
LINE
  5
26B
330
1E
100
AcDbEntity
  8
default
  6
Continuous
 62
     1
100
AcDbLine
 10
100.3449
 20
-148.6336
 30
0.0
 11
101.2097
 21
-149.6584
 31
0.0
  0
LINE
  5
26C
330
1E
100
AcDbEntity
  8
default
  6
Continuous
 62
     1
100
AcDbLine
 10
149.6584
 20
-101.2097
 30
0.0
 11
150.6776999999999
 21
-102.0875999999999
 31
0.0
  0
LINE
  5
26D
330
1E
100
AcDbEntity
  8
default
  6
Continuous
 62
     1
100
AcDbLine
 10
101.2097
 20
-149.6584
 30
0.0
 11
102.0875999999999
 21
-150.6776999999999
 31
0.0
  0
LINE
  5
26E
330
1E
100
AcDbEntity
  8
default
  6
Continuous
 62
     1
100
AcDbLine
 10
150.6776999999999
 20
-102.0875999999999
 30
0.0
 11
151.6911
 21
-102.9781999999999
 31
0.0
  0
LINE
  5
26F
330
1E
100
AcDbEntity
  8
default
  6
Continuous
 62
     1
100
AcDbLine
 10
102.0875999999999
 20
-150.6776999999999
 30
0.0
 11
102.9781999999999
 21
-151.6911
 31
0.0
  0
LINE
  5
270
330
1E
100
AcDbEntity
  8
default
  6
Continuous
 62
     1
100
AcDbLine
 10
151.6911
 20
-102.9781999999999
 30
0.0
 11
152.698
 21
-103.881
 31
0.0
  0
LINE
  5
271
330
1E
100
AcDbEntity
  8
default
  6
Continuous
 62
     1
100
AcDbLine
 10
102.9781999999999
 20
-151.6911
 30
0.0
 11
103.881
 21
-152.698
 31
0.0
  0
LINE
  5
272
330
1E
100
AcDbEntity
  8
default
  6
Continuous
 62
     1
100
AcDbLine
 10
152.698
 20
-103.881
 30
0.0
 11
153.6979
 21
-104.7957
 31
0.0
  0
LINE
  5
273
330
1E
100
AcDbEntity
  8
default
  6
Continuous
 62
     1
100
AcDbLine
 10
103.881
 20
-152.698
 30
0.0
 11
104.7957
 21
-153.6979
 31
0.0
  0
LINE
  5
274
330
1E
100
AcDbEntity
  8
default
  6
Continuous
 62
     1
100
AcDbLine
 10
153.6979
 20
-104.7957
 30
0.0
 11
154.6903
 21
-105.7217
 31
0.0
  0
LINE
  5
275
330
1E
100
AcDbEntity
  8
default
  6
Continuous
 62
     1
100
AcDbLine
 10
104.7957
 20
-153.6979
 30
0.0
 11
105.7217
 21
-154.6903
 31
0.0
  0
LINE
  5
276
330
1E
100
AcDbEntity
  8
default
  6
Continuous
 62
     1
100
AcDbLine
 10
154.6903
 20
-105.7217
 30
0.0
 11
155.6745999999999
 21
-106.6586
 31
0.0
  0
LINE
  5
277
330
1E
100
AcDbEntity
  8
default
  6
Continuous
 62
     1
100
AcDbLine
 10
105.7217
 20
-154.6903
 30
0.0
 11
106.6586
 21
-155.6745999999999
 31
0.0
  0
LINE
  5
278
330
1E
100
AcDbEntity
  8
default
  6
Continuous
 62
     1
100
AcDbLine
 10
155.6745999999999
 20
-106.6586
 30
0.0
 11
156.6505
 21
-107.606
 31
0.0
  0
LINE
  5
279
330
1E
100
AcDbEntity
  8
default
  6
Continuous
 62
     1
100
AcDbLine
 10
106.6586
 20
-155.6745999999999
 30
0.0
 11
107.606
 21
-156.6505
 31
0.0
  0
LINE
  5
27A
330
1E
100
AcDbEntity
  8
default
  6
Continuous
 62
     1
100
AcDbLine
 10
156.6505
 20
-107.606
 30
0.0
 11
157.6173
 21
-108.5633
 31
0.0
  0
LINE
  5
27B
330
1E
100
AcDbEntity
  8
default
  6
Continuous
 62
     1
100
AcDbLine
 10
107.606
 20
-156.6505
 30
0.0
 11
108.5633
 21
-157.6173
 31
0.0
  0
LINE
  5
27C
330
1E
100
AcDbEntity
  8
default
  6
Continuous
 62
     1
100
AcDbLine
 10
157.6173
 20
-108.5633
 30
0.0
 11
108.5633
 21
-157.6173
 31
0.0
  0
LINE
  5
27D
330
1E
100
AcDbEntity
  8
default
  6
Continuous
 62
     1
100
AcDbLine
 10
80.0
 20
0.0
 30
0.0
 11
81.38249999999999
 21
0.2074
 31
0.0
  0
LINE
  5
27E
330
1E
100
AcDbEntity
  8
default
  6
Continuous
 62
     1
100
AcDbLine
 10
80.0
 20
0.0
 30
0.0
 11
81.38249999999999
 21
-0.2074
 31
0.0
  0
LINE
  5
27F
330
1E
100
AcDbEntity
  8
default
  6
Continuous
 62
     1
100
AcDbLine
 10
81.38249999999999
 20
0.2074
 30
0.0
 11
82.75879999999999
 21
0.4268
 31
0.0
  0
LINE
  5
280
330
1E
100
AcDbEntity
  8
default
  6
Continuous
 62
     1
100
AcDbLine
 10
81.38249999999999
 20
-0.2074
 30
0.0
 11
82.75879999999999
 21
-0.4268
 31
0.0
  0
LINE
  5
281
330
1E
100
AcDbEntity
  8
default
  6
Continuous
 62
     1
100
AcDbLine
 10
82.75879999999999
 20
0.4268
 30
0.0
 11
84.12779999999999
 21
0.6582
 31
0.0
  0
LINE
  5
282
330
1E
100
AcDbEntity
  8
default
  6
Continuous
 62
     1
100
AcDbLine
 10
82.75879999999999
 20
-0.4268
 30
0.0
 11
84.12779999999999
 21
-0.6582
 31
0.0
  0
LINE
  5
283
330
1E
100
AcDbEntity
  8
default
  6
Continuous
 62
     1
100
AcDbLine
 10
84.12779999999999
 20
0.6582
 30
0.0
 11
85.4888
 21
0.9013999999999999
 31
0.0
  0
LINE
  5
284
330
1E
100
AcDbEntity
  8
default
  6
Continuous
 62
     1
100
AcDbLine
 10
84.12779999999999
 20
-0.6582
 30
0.0
 11
85.4888
 21
-0.9013999999999999
 31
0.0
  0
LINE
  5
285
330
1E
100
AcDbEntity
  8
default
  6
Continuous
 62
     1
100
AcDbLine
 10
85.4888
 20
0.9013999999999999
 30
0.0
 11
86.8407
 21
1.156199999999999
 31
0.0
  0
LINE
  5
286
330
1E
100
AcDbEntity
  8
default
  6
Continuous
 62
     1
100
AcDbLine
 10
85.4888
 20
-0.9013999999999999
 30
0.0
 11
86.8407
 21
-1.156199999999999
 31
0.0
  0
LINE
  5
287
330
1E
100
AcDbEntity
  8
default
  6
Continuous
 62
     1
100
AcDbLine
 10
86.8407
 20
1.156199999999999
 30
0.0
 11
88.1826
 21
1.4224
 31
0.0
  0
LINE
  5
288
330
1E
100
AcDbEntity
  8
default
  6
Continuous
 62
     1
100
AcDbLine
 10
86.8407
 20
-1.156199999999999
 30
0.0
 11
88.1826
 21
-1.4224
 31
0.0
  0
LINE
  5
289
330
1E
100
AcDbEntity
  8
default
  6
Continuous
 62
     1
100
AcDbLine
 10
88.1826
 20
1.4224
 30
0.0
 11
89.5137
 21
1.699799999999999
 31
0.0
  0
LINE
  5
28A
330
1E
100
AcDbEntity
  8
default
  6
Continuous
 62
     1
100
AcDbLine
 10
88.1826
 20
-1.4224
 30
0.0
 11
89.5137
 21
-1.699799999999999
 31
0.0
  0
LINE
  5
28B
330
1E
100
AcDbEntity
  8
default
  6
Continuous
 62
     1
100
AcDbLine
 10
89.5137
 20
1.699799999999999
 30
0.0
 11
90.83299999999999
 21
1.988199999999999
 31
0.0
  0
LINE
  5
28C
330
1E
100
AcDbEntity
  8
default
  6
Continuous
 62
     1
100
AcDbLine
 10
89.5137
 20
-1.699799999999999
 30
0.0
 11
90.83299999999999
 21
-1.988199999999999
 31
0.0
  0
LINE
  5
28D
330
1E
100
AcDbEntity
  8
default
  6
Continuous
 62
     1
100
AcDbLine
 10
90.83299999999999
 20
1.988199999999999
 30
0.0
 11
92.1396
 21
2.287399999999999
 31
0.0
  0
LINE
  5
28E
330
1E
100
AcDbEntity
  8
default
  6
Continuous
 62
     1
100
AcDbLine
 10
90.83299999999999
 20
-1.988199999999999
 30
0.0
 11
92.1396
 21
-2.287399999999999
 31
0.0
  0
LINE
  5
28F
330
1E
100
AcDbEntity
  8
default
  6
Continuous
 62
     1
100
AcDbLine
 10
92.1396
 20
2.287399999999999
 30
0.0
 11
93.4327
 21
2.5971
 31
0.0
  0
LINE
  5
290
330
1E
100
AcDbEntity
  8
default
  6
Continuous
 62
     1
100
AcDbLine
 10
92.1396
 20
-2.287399999999999
 30
0.0
 11
93.4327
 21
-2.5971
 31
0.0
  0
LINE
  5
291
330
1E
100
AcDbEntity
  8
default
  6
Continuous
 62
     1
100
AcDbLine
 10
93.4327
 20
2.5971
 30
0.0
 11
94.71149999999999
 21
2.917199999999999
 31
0.0
  0
LINE
  5
292
330
1E
100
AcDbEntity
  8
default
  6
Continuous
 62
     1
100
AcDbLine
 10
93.4327
 20
-2.5971
 30
0.0
 11
94.71149999999999
 21
-2.917199999999999
 31
0.0
  0
LINE
  5
293
330
1E
100
AcDbEntity
  8
default
  6
Continuous
 62
     1
100
AcDbLine
 10
94.71149999999999
 20
2.917199999999999
 30
0.0
 11
95.97520000000001
 21
3.247399999999999
 31
0.0
  0
LINE
  5
294
330
1E
100
AcDbEntity
  8
default
  6
Continuous
 62
     1
100
AcDbLine
 10
94.71149999999999
 20
-2.917199999999999
 30
0.0
 11
95.97520000000001
 21
-3.247399999999999
 31
0.0
  0
LINE
  5
295
330
1E
100
AcDbEntity
  8
default
  6
Continuous
 62
     1
100
AcDbLine
 10
95.97520000000001
 20
3.247399999999999
 30
0.0
 11
97.2229
 21
3.5874
 31
0.0
  0
LINE
  5
296
330
1E
100
AcDbEntity
  8
default
  6
Continuous
 62
     1
100
AcDbLine
 10
95.97520000000001
 20
-3.247399999999999
 30
0.0
 11
97.2229
 21
-3.5874
 31
0.0
  0
LINE
  5
297
330
1E
100
AcDbEntity
  8
default
  6
Continuous
 62
     1
100
AcDbLine
 10
97.2229
 20
3.5874
 30
0.0
 11
98.45399999999999
 21
3.9371
 31
0.0
  0
LINE
  5
298
330
1E
100
AcDbEntity
  8
default
  6
Continuous
 62
     1
100
AcDbLine
 10
97.2229
 20
-3.5874
 30
0.0
 11
98.45399999999999
 21
-3.9371
 31
0.0
  0
LINE
  5
299
330
1E
100
AcDbEntity
  8
default
  6
Continuous
 62
     1
100
AcDbLine
 10
98.45399999999999
 20
3.9371
 30
0.0
 11
99.66779999999999
 21
4.2961
 31
0.0
  0
LINE
  5
29A
330
1E
100
AcDbEntity
  8
default
  6
Continuous
 62
     1
100
AcDbLine
 10
98.45399999999999
 20
-3.9371
 30
0.0
 11
99.66779999999999
 21
-4.2961
 31
0.0
  0
LINE
  5
29B
330
1E
100
AcDbEntity
  8
default
  6
Continuous
 62
     1
100
AcDbLine
 10
99.66779999999999
 20
4.2961
 30
0.0
 11
100.8636
 21
4.6641
 31
0.0
  0
LINE
  5
29C
330
1E
100
AcDbEntity
  8
default
  6
Continuous
 62
     1
100
AcDbLine
 10
99.66779999999999
 20
-4.2961
 30
0.0
 11
100.8636
 21
-4.6641
 31
0.0
  0
LINE
  5
29D
330
1E
100
AcDbEntity
  8
default
  6
Continuous
 62
     1
100
AcDbLine
 10
100.8636
 20
4.6641
 30
0.0
 11
102.0407999999999
 21
5.041
 31
0.0
  0
LINE
  5
29E
330
1E
100
AcDbEntity
  8
default
  6
Continuous
 62
     1
100
AcDbLine
 10
100.8636
 20
-4.6641
 30
0.0
 11
102.0407999999999
 21
-5.041
 31
0.0
  0
LINE
  5
29F
330
1E
100
AcDbEntity
  8
default
  6
Continuous
 62
     1
100
AcDbLine
 10
102.0407999999999
 20
5.041
 30
0.0
 11
103.1989
 21
5.4264
 31
0.0
  0
LINE
  5
2A0
330
1E
100
AcDbEntity
  8
default
  6
Continuous
 62
     1
100
AcDbLine
 10
102.0407999999999
 20
-5.041
 30
0.0
 11
103.1989
 21
-5.4264
 31
0.0
  0
LINE
  5
2A1
330
1E
100
AcDbEntity
  8
default
  6
Continuous
 62
     1
100
AcDbLine
 10
103.1989
 20
5.4264
 30
0.0
 11
104.3373
 21
5.8201
 31
0.0
  0
LINE
  5
2A2
330
1E
100
AcDbEntity
  8
default
  6
Continuous
 62
     1
100
AcDbLine
 10
103.1989
 20
-5.4264
 30
0.0
 11
104.3373
 21
-5.8201
 31
0.0
  0
LINE
  5
2A3
330
1E
100
AcDbEntity
  8
default
  6
Continuous
 62
     1
100
AcDbLine
 10
104.3373
 20
5.8201
 30
0.0
 11
105.4556999999999
 21
6.2217
 31
0.0
  0
LINE
  5
2A4
330
1E
100
AcDbEntity
  8
default
  6
Continuous
 62
     1
100
AcDbLine
 10
104.3373
 20
-5.8201
 30
0.0
 11
105.4556999999999
 21
-6.2217
 31
0.0
  0
LINE
  5
2A5
330
1E
100
AcDbEntity
  8
default
  6
Continuous
 62
     1
100
AcDbLine
 10
105.4556999999999
 20
6.2217
 30
0.0
 11
106.5537999999999
 21
6.630899999999999
 31
0.0
  0
LINE
  5
2A6
330
1E
100
AcDbEntity
  8
default
  6
Continuous
 62
     1
100
AcDbLine
 10
105.4556999999999
 20
-6.2217
 30
0.0
 11
106.5537999999999
 21
-6.630899999999999
 31
0.0
  0
LINE
  5
2A7
330
1E
100
AcDbEntity
  8
default
  6
Continuous
 62
     1
100
AcDbLine
 10
106.5537999999999
 20
6.630899999999999
 30
0.0
 11
107.6311
 21
7.0475
 31
0.0
  0
LINE
  5
2A8
330
1E
100
AcDbEntity
  8
default
  6
Continuous
 62
     1
100
AcDbLine
 10
106.5537999999999
 20
-6.630899999999999
 30
0.0
 11
107.6311
 21
-7.0475
 31
0.0
  0
LINE
  5
2A9
330
1E
100
AcDbEntity
  8
default
  6
Continuous
 62
     1
100
AcDbLine
 10
107.6311
 20
7.0475
 30
0.0
 11
108.6875
 21
7.471099999999999
 31
0.0
  0
LINE
  5
2AA
330
1E
100
AcDbEntity
  8
default
  6
Continuous
 62
     1
100
AcDbLine
 10
107.6311
 20
-7.0475
 30
0.0
 11
108.6875
 21
-7.471099999999999
 31
0.0
  0
LINE
  5
2AB
330
1E
100
AcDbEntity
  8
default
  6
Continuous
 62
     1
100
AcDbLine
 10
108.6875
 20
7.471099999999999
 30
0.0
 11
109.7229999999999
 21
7.9015
 31
0.0
  0
LINE
  5
2AC
330
1E
100
AcDbEntity
  8
default
  6
Continuous
 62
     1
100
AcDbLine
 10
108.6875
 20
-7.471099999999999
 30
0.0
 11
109.7229999999999
 21
-7.9015
 31
0.0
  0
LINE
  5
2AD
330
1E
100
AcDbEntity
  8
default
  6
Continuous
 62
     1
100
AcDbLine
 10
109.7229999999999
 20
7.9015
 30
0.0
 11
110.7373999999999
 21
8.3383
 31
0.0
  0
LINE
  5
2AE
330
1E
100
AcDbEntity
  8
default
  6
Continuous
 62
     1
100
AcDbLine
 10
109.7229999999999
 20
-7.9015
 30
0.0
 11
110.7373999999999
 21
-8.3383
 31
0.0
  0
LINE
  5
2AF
330
1E
100
AcDbEntity
  8
default
  6
Continuous
 62
     1
100
AcDbLine
 10
110.7373999999999
 20
8.3383
 30
0.0
 11
111.7309
 21
8.7811
 31
0.0
  0
LINE
  5
2B0
330
1E
100
AcDbEntity
  8
default
  6
Continuous
 62
     1
100
AcDbLine
 10
110.7373999999999
 20
-8.3383
 30
0.0
 11
111.7309
 21
-8.7811
 31
0.0
  0
LINE
  5
2B1
330
1E
100
AcDbEntity
  8
default
  6
Continuous
 62
     1
100
AcDbLine
 10
111.7309
 20
8.7811
 30
0.0
 11
112.7037
 21
9.229799999999999
 31
0.0
  0
LINE
  5
2B2
330
1E
100
AcDbEntity
  8
default
  6
Continuous
 62
     1
100
AcDbLine
 10
111.7309
 20
-8.7811
 30
0.0
 11
112.7037
 21
-9.229799999999999
 31
0.0
  0
LINE
  5
2B3
330
1E
100
AcDbEntity
  8
default
  6
Continuous
 62
     1
100
AcDbLine
 10
112.7037
 20
9.229799999999999
 30
0.0
 11
113.656
 21
9.683799999999999
 31
0.0
  0
LINE
  5
2B4
330
1E
100
AcDbEntity
  8
default
  6
Continuous
 62
     1
100
AcDbLine
 10
112.7037
 20
-9.229799999999999
 30
0.0
 11
113.656
 21
-9.683799999999999
 31
0.0
  0
LINE
  5
2B5
330
1E
100
AcDbEntity
  8
default
  6
Continuous
 62
     1
100
AcDbLine
 10
113.656
 20
9.683799999999999
 30
0.0
 11
114.5882
 21
10.14289999999999
 31
0.0
  0
LINE
  5
2B6
330
1E
100
AcDbEntity
  8
default
  6
Continuous
 62
     1
100
AcDbLine
 10
113.656
 20
-9.683799999999999
 30
0.0
 11
114.5882
 21
-10.14289999999999
 31
0.0
  0
LINE
  5
2B7
330
1E
100
AcDbEntity
  8
default
  6
Continuous
 62
     1
100
AcDbLine
 10
114.5882
 20
10.14289999999999
 30
0.0
 11
115.501
 21
10.6068
 31
0.0
  0
LINE
  5
2B8
330
1E
100
AcDbEntity
  8
default
  6
Continuous
 62
     1
100
AcDbLine
 10
114.5882
 20
-10.14289999999999
 30
0.0
 11
115.501
 21
-10.6068
 31
0.0
  0
LINE
  5
2B9
330
1E
100
AcDbEntity
  8
default
  6
Continuous
 62
     1
100
AcDbLine
 10
115.501
 20
10.6068
 30
0.0
 11
116.3949
 21
11.0751
 31
0.0
  0
LINE
  5
2BA
330
1E
100
AcDbEntity
  8
default
  6
Continuous
 62
     1
100
AcDbLine
 10
115.501
 20
-10.6068
 30
0.0
 11
116.3949
 21
-11.0751
 31
0.0
  0
LINE
  5
2BB
330
1E
100
AcDbEntity
  8
default
  6
Continuous
 62
     1
100
AcDbLine
 10
116.3949
 20
11.0751
 30
0.0
 11
117.2707999999999
 21
11.5474
 31
0.0
  0
LINE
  5
2BC
330
1E
100
AcDbEntity
  8
default
  6
Continuous
 62
     1
100
AcDbLine
 10
116.3949
 20
-11.0751
 30
0.0
 11
117.2707999999999
 21
-11.5474
 31
0.0
  0
LINE
  5
2BD
330
1E
100
AcDbEntity
  8
default
  6
Continuous
 62
     1
100
AcDbLine
 10
117.2707999999999
 20
11.5474
 30
0.0
 11
118.1297
 21
12.0235
 31
0.0
  0
LINE
  5
2BE
330
1E
100
AcDbEntity
  8
default
  6
Continuous
 62
     1
100
AcDbLine
 10
117.2707999999999
 20
-11.5474
 30
0.0
 11
118.1297
 21
-12.0235
 31
0.0
  0
LINE
  5
2BF
330
1E
100
AcDbEntity
  8
default
  6
Continuous
 62
     1
100
AcDbLine
 10
118.1297
 20
12.0235
 30
0.0
 11
118.9726999999999
 21
12.5029
 31
0.0
  0
LINE
  5
2C0
330
1E
100
AcDbEntity
  8
default
  6
Continuous
 62
     1
100
AcDbLine
 10
118.1297
 20
-12.0235
 30
0.0
 11
118.9726999999999
 21
-12.5029
 31
0.0
  0
LINE
  5
2C1
330
1E
100
AcDbEntity
  8
default
  6
Continuous
 62
     1
100
AcDbLine
 10
118.9726999999999
 20
12.5029
 30
0.0
 11
119.8009
 21
12.9853
 31
0.0
  0
LINE
  5
2C2
330
1E
100
AcDbEntity
  8
default
  6
Continuous
 62
     1
100
AcDbLine
 10
118.9726999999999
 20
-12.5029
 30
0.0
 11
119.8009
 21
-12.9853
 31
0.0
  0
LINE
  5
2C3
330
1E
100
AcDbEntity
  8
default
  6
Continuous
 62
     1
100
AcDbLine
 10
119.8009
 20
12.9853
 30
0.0
 11
120.6158999999999
 21
13.4703
 31
0.0
  0
LINE
  5
2C4
330
1E
100
AcDbEntity
  8
default
  6
Continuous
 62
     1
100
AcDbLine
 10
119.8009
 20
-12.9853
 30
0.0
 11
120.6158999999999
 21
-13.4703
 31
0.0
  0
LINE
  5
2C5
330
1E
100
AcDbEntity
  8
default
  6
Continuous
 62
     1
100
AcDbLine
 10
120.6158999999999
 20
13.4703
 30
0.0
 11
121.419
 21
13.9577
 31
0.0
  0
LINE
  5
2C6
330
1E
100
AcDbEntity
  8
default
  6
Continuous
 62
     1
100
AcDbLine
 10
120.6158999999999
 20
-13.4703
 30
0.0
 11
121.419
 21
-13.9577
 31
0.0
  0
LINE
  5
2C7
330
1E
100
AcDbEntity
  8
default
  6
Continuous
 62
     1
100
AcDbLine
 10
121.419
 20
13.9577
 30
0.0
 11
122.2118999999999
 21
14.4469
 31
0.0
  0
LINE
  5
2C8
330
1E
100
AcDbEntity
  8
default
  6
Continuous
 62
     1
100
AcDbLine
 10
121.419
 20
-13.9577
 30
0.0
 11
122.2118999999999
 21
-14.4469
 31
0.0
  0
LINE
  5
2C9
330
1E
100
AcDbEntity
  8
default
  6
Continuous
 62
     1
100
AcDbLine
 10
122.2118999999999
 20
14.4469
 30
0.0
 11
122.9964999999999
 21
14.9378
 31
0.0
  0
LINE
  5
2CA
330
1E
100
AcDbEntity
  8
default
  6
Continuous
 62
     1
100
AcDbLine
 10
122.2118999999999
 20
-14.4469
 30
0.0
 11
122.9964999999999
 21
-14.9378
 31
0.0
  0
LINE
  5
2CB
330
1E
100
AcDbEntity
  8
default
  6
Continuous
 62
     1
100
AcDbLine
 10
122.9964999999999
 20
14.9378
 30
0.0
 11
123.7745
 21
15.4298
 31
0.0
  0
LINE
  5
2CC
330
1E
100
AcDbEntity
  8
default
  6
Continuous
 62
     1
100
AcDbLine
 10
122.9964999999999
 20
-14.9378
 30
0.0
 11
123.7745
 21
-15.4298
 31
0.0
  0
LINE
  5
2CD
330
1E
100
AcDbEntity
  8
default
  6
Continuous
 62
     1
100
AcDbLine
 10
123.7745
 20
15.4298
 30
0.0
 11
124.548
 21
15.9226
 31
0.0
  0
LINE
  5
2CE
330
1E
100
AcDbEntity
  8
default
  6
Continuous
 62
     1
100
AcDbLine
 10
123.7745
 20
-15.4298
 30
0.0
 11
124.548
 21
-15.9226
 31
0.0
  0
LINE
  5
2CF
330
1E
100
AcDbEntity
  8
default
  6
Continuous
 62
     1
100
AcDbLine
 10
124.548
 20
15.9226
 30
0.0
 11
125.3187999999999
 21
16.4159
 31
0.0
  0
LINE
  5
2D0
330
1E
100
AcDbEntity
  8
default
  6
Continuous
 62
     1
100
AcDbLine
 10
124.548
 20
-15.9226
 30
0.0
 11
125.3187999999999
 21
-16.4159
 31
0.0
  0
LINE
  5
2D1
330
1E
100
AcDbEntity
  8
default
  6
Continuous
 62
     1
100
AcDbLine
 10
125.3187999999999
 20
16.4159
 30
0.0
 11
126.089
 21
16.9094
 31
0.0
  0
LINE
  5
2D2
330
1E
100
AcDbEntity
  8
default
  6
Continuous
 62
     1
100
AcDbLine
 10
125.3187999999999
 20
-16.4159
 30
0.0
 11
126.089
 21
-16.9094
 31
0.0
  0
LINE
  5
2D3
330
1E
100
AcDbEntity
  8
default
  6
Continuous
 62
     1
100
AcDbLine
 10
126.089
 20
16.9094
 30
0.0
 11
126.8601
 21
17.4025
 31
0.0
  0
LINE
  5
2D4
330
1E
100
AcDbEntity
  8
default
  6
Continuous
 62
     1
100
AcDbLine
 10
126.089
 20
-16.9094
 30
0.0
 11
126.8601
 21
-17.4025
 31
0.0
  0
LINE
  5
2D5
330
1E
100
AcDbEntity
  8
default
  6
Continuous
 62
     1
100
AcDbLine
 10
126.8601
 20
17.4025
 30
0.0
 11
127.6333
 21
17.89509999999999
 31
0.0
  0
LINE
  5
2D6
330
1E
100
AcDbEntity
  8
default
  6
Continuous
 62
     1
100
AcDbLine
 10
126.8601
 20
-17.4025
 30
0.0
 11
127.6333
 21
-17.89509999999999
 31
0.0
  0
LINE
  5
2D7
330
1E
100
AcDbEntity
  8
default
  6
Continuous
 62
     1
100
AcDbLine
 10
127.6333
 20
17.89509999999999
 30
0.0
 11
128.4096999999999
 21
18.3866
 31
0.0
  0
LINE
  5
2D8
330
1E
100
AcDbEntity
  8
default
  6
Continuous
 62
     1
100
AcDbLine
 10
127.6333
 20
-17.89509999999999
 30
0.0
 11
128.4096999999999
 21
-18.3866
 31
0.0
  0
LINE
  5
2D9
330
1E
100
AcDbEntity
  8
default
  6
Continuous
 62
     1
100
AcDbLine
 10
128.4096999999999
 20
18.3866
 30
0.0
 11
129.1905999999999
 21
18.87679999999999
 31
0.0
  0
LINE
  5
2DA
330
1E
100
AcDbEntity
  8
default
  6
Continuous
 62
     1
100
AcDbLine
 10
128.4096999999999
 20
-18.3866
 30
0.0
 11
129.1905999999999
 21
-18.87679999999999
 31
0.0
  0
LINE
  5
2DB
330
1E
100
AcDbEntity
  8
default
  6
Continuous
 62
     1
100
AcDbLine
 10
129.1905999999999
 20
18.87679999999999
 30
0.0
 11
129.977
 21
19.3653
 31
0.0
  0
LINE
  5
2DC
330
1E
100
AcDbEntity
  8
default
  6
Continuous
 62
     1
100
AcDbLine
 10
129.1905999999999
 20
-18.87679999999999
 30
0.0
 11
129.977
 21
-19.3653
 31
0.0
  0
LINE
  5
2DD
330
1E
100
AcDbEntity
  8
default
  6
Continuous
 62
     1
100
AcDbLine
 10
129.977
 20
19.3653
 30
0.0
 11
130.77
 21
19.8516
 31
0.0
  0
LINE
  5
2DE
330
1E
100
AcDbEntity
  8
default
  6
Continuous
 62
     1
100
AcDbLine
 10
129.977
 20
-19.3653
 30
0.0
 11
130.77
 21
-19.8516
 31
0.0
  0
LINE
  5
2DF
330
1E
100
AcDbEntity
  8
default
  6
Continuous
 62
     1
100
AcDbLine
 10
130.77
 20
19.8516
 30
0.0
 11
131.5706999999999
 21
20.3356
 31
0.0
  0
LINE
  5
2E0
330
1E
100
AcDbEntity
  8
default
  6
Continuous
 62
     1
100
AcDbLine
 10
130.77
 20
-19.8516
 30
0.0
 11
131.5706999999999
 21
-20.3356
 31
0.0
  0
LINE
  5
2E1
330
1E
100
AcDbEntity
  8
default
  6
Continuous
 62
     1
100
AcDbLine
 10
131.5706999999999
 20
20.3356
 30
0.0
 11
132.3801
 21
20.8167
 31
0.0
  0
LINE
  5
2E2
330
1E
100
AcDbEntity
  8
default
  6
Continuous
 62
     1
100
AcDbLine
 10
131.5706999999999
 20
-20.3356
 30
0.0
 11
132.3801
 21
-20.8167
 31
0.0
  0
LINE
  5
2E3
330
1E
100
AcDbEntity
  8
default
  6
Continuous
 62
     1
100
AcDbLine
 10
132.3801
 20
20.8167
 30
0.0
 11
133.1990999999999
 21
21.29469999999999
 31
0.0
  0
LINE
  5
2E4
330
1E
100
AcDbEntity
  8
default
  6
Continuous
 62
     1
100
AcDbLine
 10
132.3801
 20
-20.8167
 30
0.0
 11
133.1990999999999
 21
-21.29469999999999
 31
0.0
  0
LINE
  5
2E5
330
1E
100
AcDbEntity
  8
default
  6
Continuous
 62
     1
100
AcDbLine
 10
133.1990999999999
 20
21.29469999999999
 30
0.0
 11
134.0286
 21
21.7692
 31
0.0
  0
LINE
  5
2E6
330
1E
100
AcDbEntity
  8
default
  6
Continuous
 62
     1
100
AcDbLine
 10
133.1990999999999
 20
-21.29469999999999
 30
0.0
 11
134.0286
 21
-21.7692
 31
0.0
  0
LINE
  5
2E7
330
1E
100
AcDbEntity
  8
default
  6
Continuous
 62
     1
100
AcDbLine
 10
134.0286
 20
21.7692
 30
0.0
 11
134.8694
 21
22.2398
 31
0.0
  0
LINE
  5
2E8
330
1E
100
AcDbEntity
  8
default
  6
Continuous
 62
     1
100
AcDbLine
 10
134.0286
 20
-21.7692
 30
0.0
 11
134.8694
 21
-22.2398
 31
0.0
  0
LINE
  5
2E9
330
1E
100
AcDbEntity
  8
default
  6
Continuous
 62
     1
100
AcDbLine
 10
134.8694
 20
22.2398
 30
0.0
 11
135.7221999999999
 21
22.7062
 31
0.0
  0
LINE
  5
2EA
330
1E
100
AcDbEntity
  8
default
  6
Continuous
 62
     1
100
AcDbLine
 10
134.8694
 20
-22.2398
 30
0.0
 11
135.7221999999999
 21
-22.7062
 31
0.0
  0
LINE
  5
2EB
330
1E
100
AcDbEntity
  8
default
  6
Continuous
 62
     1
100
AcDbLine
 10
135.7221999999999
 20
22.7062
 30
0.0
 11
136.5877
 21
23.168
 31
0.0
  0
LINE
  5
2EC
330
1E
100
AcDbEntity
  8
default
  6
Continuous
 62
     1
100
AcDbLine
 10
135.7221999999999
 20
-22.7062
 30
0.0
 11
136.5877
 21
-23.168
 31
0.0
  0
LINE
  5
2ED
330
1E
100
AcDbEntity
  8
default
  6
Continuous
 62
     1
100
AcDbLine
 10
136.5877
 20
23.168
 30
0.0
 11
137.4665999999999
 21
23.625
 31
0.0
  0
LINE
  5
2EE
330
1E
100
AcDbEntity
  8
default
  6
Continuous
 62
     1
100
AcDbLine
 10
136.5877
 20
-23.168
 30
0.0
 11
137.4665999999999
 21
-23.625
 31
0.0
  0
LINE
  5
2EF
330
1E
100
AcDbEntity
  8
default
  6
Continuous
 62
     1
100
AcDbLine
 10
137.4665999999999
 20
23.625
 30
0.0
 11
138.3592999999999
 21
24.07669999999999
 31
0.0
  0
LINE
  5
2F0
330
1E
100
AcDbEntity
  8
default
  6
Continuous
 62
     1
100
AcDbLine
 10
137.4665999999999
 20
-23.625
 30
0.0
 11
138.3592999999999
 21
-24.07669999999999
 31
0.0
  0
LINE
  5
2F1
330
1E
100
AcDbEntity
  8
default
  6
Continuous
 62
     1
100
AcDbLine
 10
138.3592999999999
 20
24.07669999999999
 30
0.0
 11
139.2664
 21
24.5228
 31
0.0
  0
LINE
  5
2F2
330
1E
100
AcDbEntity
  8
default
  6
Continuous
 62
     1
100
AcDbLine
 10
138.3592999999999
 20
-24.07669999999999
 30
0.0
 11
139.2664
 21
-24.5228
 31
0.0
  0
LINE
  5
2F3
330
1E
100
AcDbEntity
  8
default
  6
Continuous
 62
     1
100
AcDbLine
 10
139.2664
 20
24.5228
 30
0.0
 11
140.1882999999999
 21
24.9631
 31
0.0
  0
LINE
  5
2F4
330
1E
100
AcDbEntity
  8
default
  6
Continuous
 62
     1
100
AcDbLine
 10
139.2664
 20
-24.5228
 30
0.0
 11
140.1882999999999
 21
-24.9631
 31
0.0
  0
LINE
  5
2F5
330
1E
100
AcDbEntity
  8
default
  6
Continuous
 62
     1
100
AcDbLine
 10
140.1882999999999
 20
24.9631
 30
0.0
 11
141.1253
 21
25.39709999999999
 31
0.0
  0
LINE
  5
2F6
330
1E
100
AcDbEntity
  8
default
  6
Continuous
 62
     1
100
AcDbLine
 10
140.1882999999999
 20
-24.9631
 30
0.0
 11
141.1253
 21
-25.39709999999999
 31
0.0
  0
LINE
  5
2F7
330
1E
100
AcDbEntity
  8
default
  6
Continuous
 62
     1
100
AcDbLine
 10
141.1253
 20
25.39709999999999
 30
0.0
 11
142.0778
 21
25.8246
 31
0.0
  0
LINE
  5
2F8
330
1E
100
AcDbEntity
  8
default
  6
Continuous
 62
     1
100
AcDbLine
 10
141.1253
 20
-25.39709999999999
 30
0.0
 11
142.0778
 21
-25.8246
 31
0.0
  0
LINE
  5
2F9
330
1E
100
AcDbEntity
  8
default
  6
Continuous
 62
     1
100
AcDbLine
 10
142.0778
 20
25.8246
 30
0.0
 11
143.0458999999999
 21
26.2452
 31
0.0
  0
LINE
  5
2FA
330
1E
100
AcDbEntity
  8
default
  6
Continuous
 62
     1
100
AcDbLine
 10
142.0778
 20
-25.8246
 30
0.0
 11
143.0458999999999
 21
-26.2452
 31
0.0
  0
LINE
  5
2FB
330
1E
100
AcDbEntity
  8
default
  6
Continuous
 62
     1
100
AcDbLine
 10
143.0458999999999
 20
26.2452
 30
0.0
 11
144.0298999999999
 21
26.6586
 31
0.0
  0
LINE
  5
2FC
330
1E
100
AcDbEntity
  8
default
  6
Continuous
 62
     1
100
AcDbLine
 10
143.0458999999999
 20
-26.2452
 30
0.0
 11
144.0298999999999
 21
-26.6586
 31
0.0
  0
LINE
  5
2FD
330
1E
100
AcDbEntity
  8
default
  6
Continuous
 62
     1
100
AcDbLine
 10
144.0298999999999
 20
26.6586
 30
0.0
 11
145.0297999999999
 21
27.0645
 31
0.0
  0
LINE
  5
2FE
330
1E
100
AcDbEntity
  8
default
  6
Continuous
 62
     1
100
AcDbLine
 10
144.0298999999999
 20
-26.6586
 30
0.0
 11
145.0297999999999
 21
-27.0645
 31
0.0
  0
LINE
  5
2FF
330
1E
100
AcDbEntity
  8
default
  6
Continuous
 62
     1
100
AcDbLine
 10
145.0297999999999
 20
27.0645
 30
0.0
 11
146.0458
 21
27.4627
 31
0.0
  0
LINE
  5
300
330
1E
100
AcDbEntity
  8
default
  6
Continuous
 62
     1
100
AcDbLine
 10
145.0297999999999
 20
-27.0645
 30
0.0
 11
146.0458
 21
-27.4627
 31
0.0
  0
LINE
  5
301
330
1E
100
AcDbEntity
  8
default
  6
Continuous
 62
     1
100
AcDbLine
 10
146.0458
 20
27.4627
 30
0.0
 11
147.0777999999999
 21
27.8528
 31
0.0
  0
LINE
  5
302
330
1E
100
AcDbEntity
  8
default
  6
Continuous
 62
     1
100
AcDbLine
 10
146.0458
 20
-27.4627
 30
0.0
 11
147.0777999999999
 21
-27.8528
 31
0.0
  0
LINE
  5
303
330
1E
100
AcDbEntity
  8
default
  6
Continuous
 62
     1
100
AcDbLine
 10
147.0777999999999
 20
27.8528
 30
0.0
 11
148.1259
 21
28.2345
 31
0.0
  0
LINE
  5
304
330
1E
100
AcDbEntity
  8
default
  6
Continuous
 62
     1
100
AcDbLine
 10
147.0777999999999
 20
-27.8528
 30
0.0
 11
148.1259
 21
-28.2345
 31
0.0
  0
LINE
  5
305
330
1E
100
AcDbEntity
  8
default
  6
Continuous
 62
     1
100
AcDbLine
 10
148.1259
 20
28.2345
 30
0.0
 11
149.19
 21
28.6075
 31
0.0
  0
LINE
  5
306
330
1E
100
AcDbEntity
  8
default
  6
Continuous
 62
     1
100
AcDbLine
 10
148.1259
 20
-28.2345
 30
0.0
 11
149.19
 21
-28.6075
 31
0.0
  0
LINE
  5
307
330
1E
100
AcDbEntity
  8
default
  6
Continuous
 62
     1
100
AcDbLine
 10
149.19
 20
28.6075
 30
0.0
 11
150.2698999999999
 21
28.9717
 31
0.0
  0
LINE
  5
308
330
1E
100
AcDbEntity
  8
default
  6
Continuous
 62
     1
100
AcDbLine
 10
149.19
 20
-28.6075
 30
0.0
 11
150.2698999999999
 21
-28.9717
 31
0.0
  0
LINE
  5
309
330
1E
100
AcDbEntity
  8
default
  6
Continuous
 62
     1
100
AcDbLine
 10
150.2698999999999
 20
28.9717
 30
0.0
 11
151.3654999999999
 21
29.3266
 31
0.0
  0
LINE
  5
30A
330
1E
100
AcDbEntity
  8
default
  6
Continuous
 62
     1
100
AcDbLine
 10
150.2698999999999
 20
-28.9717
 30
0.0
 11
151.3654999999999
 21
-29.3266
 31
0.0
  0
LINE
  5
30B
330
1E
100
AcDbEntity
  8
default
  6
Continuous
 62
     1
100
AcDbLine
 10
151.3654999999999
 20
29.3266
 30
0.0
 11
152.4766999999999
 21
29.6721
 31
0.0
  0
LINE
  5
30C
330
1E
100
AcDbEntity
  8
default
  6
Continuous
 62
     1
100
AcDbLine
 10
151.3654999999999
 20
-29.3266
 30
0.0
 11
152.4766999999999
 21
-29.6721
 31
0.0
  0
LINE
  5
30D
330
1E
100
AcDbEntity
  8
default
  6
Continuous
 62
     1
100
AcDbLine
 10
152.4766999999999
 20
29.6721
 30
0.0
 11
153.6031
 21
30.0079
 31
0.0
  0
LINE
  5
30E
330
1E
100
AcDbEntity
  8
default
  6
Continuous
 62
     1
100
AcDbLine
 10
152.4766999999999
 20
-29.6721
 30
0.0
 11
153.6031
 21
-30.0079
 31
0.0
  0
LINE
  5
30F
330
1E
100
AcDbEntity
  8
default
  6
Continuous
 62
     1
100
AcDbLine
 10
153.6031
 20
30.0079
 30
0.0
 11
154.7445999999999
 21
30.3337
 31
0.0
  0
LINE
  5
310
330
1E
100
AcDbEntity
  8
default
  6
Continuous
 62
     1
100
AcDbLine
 10
153.6031
 20
-30.0079
 30
0.0
 11
154.7445999999999
 21
-30.3337
 31
0.0
  0
LINE
  5
311
330
1E
100
AcDbEntity
  8
default
  6
Continuous
 62
     1
100
AcDbLine
 10
154.7445999999999
 20
30.3337
 30
0.0
 11
155.9008
 21
30.6493
 31
0.0
  0
LINE
  5
312
330
1E
100
AcDbEntity
  8
default
  6
Continuous
 62
     1
100
AcDbLine
 10
154.7445999999999
 20
-30.3337
 30
0.0
 11
155.9008
 21
-30.6493
 31
0.0
  0
LINE
  5
313
330
1E
100
AcDbEntity
  8
default
  6
Continuous
 62
     1
100
AcDbLine
 10
155.9008
 20
30.6493
 30
0.0
 11
157.0713
 21
30.95439999999999
 31
0.0
  0
LINE
  5
314
330
1E
100
AcDbEntity
  8
default
  6
Continuous
 62
     1
100
AcDbLine
 10
155.9008
 20
-30.6493
 30
0.0
 11
157.0713
 21
-30.95439999999999
 31
0.0
  0
LINE
  5
315
330
1E
100
AcDbEntity
  8
default
  6
Continuous
 62
     1
100
AcDbLine
 10
157.0713
 20
30.95439999999999
 30
0.0
 11
158.2559
 21
31.2489
 31
0.0
  0
LINE
  5
316
330
1E
100
AcDbEntity
  8
default
  6
Continuous
 62
     1
100
AcDbLine
 10
157.0713
 20
-30.95439999999999
 30
0.0
 11
158.2559
 21
-31.2489
 31
0.0
  0
LINE
  5
317
330
1E
100
AcDbEntity
  8
default
  6
Continuous
 62
     1
100
AcDbLine
 10
158.2559
 20
31.2489
 30
0.0
 11
159.4541999999999
 21
31.53249999999999
 31
0.0
  0
LINE
  5
318
330
1E
100
AcDbEntity
  8
default
  6
Continuous
 62
     1
100
AcDbLine
 10
158.2559
 20
-31.2489
 30
0.0
 11
159.4541999999999
 21
-31.53249999999999
 31
0.0
  0
LINE
  5
319
330
1E
100
AcDbEntity
  8
default
  6
Continuous
 62
     1
100
AcDbLine
 10
159.4541999999999
 20
31.53249999999999
 30
0.0
 11
160.6657
 21
31.805
 31
0.0
  0
LINE
  5
31A
330
1E
100
AcDbEntity
  8
default
  6
Continuous
 62
     1
100
AcDbLine
 10
159.4541999999999
 20
-31.53249999999999
 30
0.0
 11
160.6657
 21
-31.805
 31
0.0
  0
LINE
  5
31B
330
1E
100
AcDbEntity
  8
default
  6
Continuous
 62
     1
100
AcDbLine
 10
160.6657
 20
31.805
 30
0.0
 11
161.8899
 21
32.0663
 31
0.0
  0
LINE
  5
31C
330
1E
100
AcDbEntity
  8
default
  6
Continuous
 62
     1
100
AcDbLine
 10
160.6657
 20
-31.805
 30
0.0
 11
161.8899
 21
-32.0663
 31
0.0
  0
LINE
  5
31D
330
1E
100
AcDbEntity
  8
default
  6
Continuous
 62
     1
100
AcDbLine
 10
161.8899
 20
32.0663
 30
0.0
 11
163.1264999999999
 21
32.316
 31
0.0
  0
LINE
  5
31E
330
1E
100
AcDbEntity
  8
default
  6
Continuous
 62
     1
100
AcDbLine
 10
161.8899
 20
-32.0663
 30
0.0
 11
163.1264999999999
 21
-32.316
 31
0.0
  0
LINE
  5
31F
330
1E
100
AcDbEntity
  8
default
  6
Continuous
 62
     1
100
AcDbLine
 10
163.1264999999999
 20
32.316
 30
0.0
 11
164.375
 21
32.55409999999999
 31
0.0
  0
LINE
  5
320
330
1E
100
AcDbEntity
  8
default
  6
Continuous
 62
     1
100
AcDbLine
 10
163.1264999999999
 20
-32.316
 30
0.0
 11
164.375
 21
-32.55409999999999
 31
0.0
  0
LINE
  5
321
330
1E
100
AcDbEntity
  8
default
  6
Continuous
 62
     1
100
AcDbLine
 10
164.375
 20
32.55409999999999
 30
0.0
 11
165.6348
 21
32.78029999999999
 31
0.0
  0
LINE
  5
322
330
1E
100
AcDbEntity
  8
default
  6
Continuous
 62
     1
100
AcDbLine
 10
164.375
 20
-32.55409999999999
 30
0.0
 11
165.6348
 21
-32.78029999999999
 31
0.0
  0
LINE
  5
323
330
1E
100
AcDbEntity
  8
default
  6
Continuous
 62
     1
100
AcDbLine
 10
165.6348
 20
32.78029999999999
 30
0.0
 11
166.9053
 21
32.9945
 31
0.0
  0
LINE
  5
324
330
1E
100
AcDbEntity
  8
default
  6
Continuous
 62
     1
100
AcDbLine
 10
165.6348
 20
-32.78029999999999
 30
0.0
 11
166.9053
 21
-32.9945
 31
0.0
  0
LINE
  5
325
330
1E
100
AcDbEntity
  8
default
  6
Continuous
 62
     1
100
AcDbLine
 10
166.9053
 20
32.9945
 30
0.0
 11
168.1862
 21
33.1965
 31
0.0
  0
LINE
  5
326
330
1E
100
AcDbEntity
  8
default
  6
Continuous
 62
     1
100
AcDbLine
 10
166.9053
 20
-32.9945
 30
0.0
 11
168.1862
 21
-33.1965
 31
0.0
  0
LINE
  5
327
330
1E
100
AcDbEntity
  8
default
  6
Continuous
 62
     1
100
AcDbLine
 10
168.1862
 20
33.1965
 30
0.0
 11
169.4766999999999
 21
33.3862
 31
0.0
  0
LINE
  5
328
330
1E
100
AcDbEntity
  8
default
  6
Continuous
 62
     1
100
AcDbLine
 10
168.1862
 20
-33.1965
 30
0.0
 11
169.4766999999999
 21
-33.3862
 31
0.0
  0
LINE
  5
329
330
1E
100
AcDbEntity
  8
default
  6
Continuous
 62
     1
100
AcDbLine
 10
169.4766999999999
 20
33.3862
 30
0.0
 11
170.7764
 21
33.56349999999999
 31
0.0
  0
LINE
  5
32A
330
1E
100
AcDbEntity
  8
default
  6
Continuous
 62
     1
100
AcDbLine
 10
169.4766999999999
 20
-33.3862
 30
0.0
 11
170.7764
 21
-33.56349999999999
 31
0.0
  0
LINE
  5
32B
330
1E
100
AcDbEntity
  8
default
  6
Continuous
 62
     1
100
AcDbLine
 10
170.7764
 20
33.56349999999999
 30
0.0
 11
172.0845999999999
 21
33.72809999999999
 31
0.0
  0
LINE
  5
32C
330
1E
100
AcDbEntity
  8
default
  6
Continuous
 62
     1
100
AcDbLine
 10
170.7764
 20
-33.56349999999999
 30
0.0
 11
172.0845999999999
 21
-33.72809999999999
 31
0.0
  0
LINE
  5
32D
330
1E
100
AcDbEntity
  8
default
  6
Continuous
 62
     1
100
AcDbLine
 10
172.0845999999999
 20
33.72809999999999
 30
0.0
 11
173.4008
 21
33.88
 31
0.0
  0
LINE
  5
32E
330
1E
100
AcDbEntity
  8
default
  6
Continuous
 62
     1
100
AcDbLine
 10
172.0845999999999
 20
-33.72809999999999
 30
0.0
 11
173.4008
 21
-33.88
 31
0.0
  0
LINE
  5
32F
330
1E
100
AcDbEntity
  8
default
  6
Continuous
 62
     1
100
AcDbLine
 10
173.4008
 20
33.88
 30
0.0
 11
174.7241999999999
 21
34.0191
 31
0.0
  0
LINE
  5
330
330
1E
100
AcDbEntity
  8
default
  6
Continuous
 62
     1
100
AcDbLine
 10
173.4008
 20
-33.88
 30
0.0
 11
174.7241999999999
 21
-34.0191
 31
0.0
  0
LINE
  5
331
330
1E
100
AcDbEntity
  8
default
  6
Continuous
 62
     1
100
AcDbLine
 10
174.7241999999999
 20
34.0191
 30
0.0
 11
176.0543
 21
34.1453
 31
0.0
  0
LINE
  5
332
330
1E
100
AcDbEntity
  8
default
  6
Continuous
 62
     1
100
AcDbLine
 10
174.7241999999999
 20
-34.0191
 30
0.0
 11
176.0543
 21
-34.1453
 31
0.0
  0
LINE
  5
333
330
1E
100
AcDbEntity
  8
default
  6
Continuous
 62
     1
100
AcDbLine
 10
176.0543
 20
34.1453
 30
0.0
 11
177.3905
 21
34.2584
 31
0.0
  0
LINE
  5
334
330
1E
100
AcDbEntity
  8
default
  6
Continuous
 62
     1
100
AcDbLine
 10
176.0543
 20
-34.1453
 30
0.0
 11
177.3905
 21
-34.2584
 31
0.0
  0
LINE
  5
335
330
1E
100
AcDbEntity
  8
default
  6
Continuous
 62
     1
100
AcDbLine
 10
177.3905
 20
34.2584
 30
0.0
 11
178.7321
 21
34.3584
 31
0.0
  0
LINE
  5
336
330
1E
100
AcDbEntity
  8
default
  6
Continuous
 62
     1
100
AcDbLine
 10
177.3905
 20
-34.2584
 30
0.0
 11
178.7321
 21
-34.3584
 31
0.0
  0
LINE
  5
337
330
1E
100
AcDbEntity
  8
default
  6
Continuous
 62
     1
100
AcDbLine
 10
178.7321
 20
34.3584
 30
0.0
 11
180.0783999999999
 21
34.4452
 31
0.0
  0
LINE
  5
338
330
1E
100
AcDbEntity
  8
default
  6
Continuous
 62
     1
100
AcDbLine
 10
178.7321
 20
-34.3584
 30
0.0
 11
180.0783999999999
 21
-34.4452
 31
0.0
  0
LINE
  5
339
330
1E
100
AcDbEntity
  8
default
  6
Continuous
 62
     1
100
AcDbLine
 10
180.0783999999999
 20
34.4452
 30
0.0
 11
181.4287999999999
 21
34.5188
 31
0.0
  0
LINE
  5
33A
330
1E
100
AcDbEntity
  8
default
  6
Continuous
 62
     1
100
AcDbLine
 10
180.0783999999999
 20
-34.4452
 30
0.0
 11
181.4287999999999
 21
-34.5188
 31
0.0
  0
LINE
  5
33B
330
1E
100
AcDbEntity
  8
default
  6
Continuous
 62
     1
100
AcDbLine
 10
181.4287999999999
 20
34.5188
 30
0.0
 11
182.7824999999999
 21
34.5791
 31
0.0
  0
LINE
  5
33C
330
1E
100
AcDbEntity
  8
default
  6
Continuous
 62
     1
100
AcDbLine
 10
181.4287999999999
 20
-34.5188
 30
0.0
 11
182.7824999999999
 21
-34.5791
 31
0.0
  0
LINE
  5
33D
330
1E
100
AcDbEntity
  8
default
  6
Continuous
 62
     1
100
AcDbLine
 10
182.7824999999999
 20
34.5791
 30
0.0
 11
184.1391
 21
34.626
 31
0.0
  0
LINE
  5
33E
330
1E
100
AcDbEntity
  8
default
  6
Continuous
 62
     1
100
AcDbLine
 10
182.7824999999999
 20
-34.5791
 30
0.0
 11
184.1391
 21
-34.626
 31
0.0
  0
LINE
  5
33F
330
1E
100
AcDbEntity
  8
default
  6
Continuous
 62
     1
100
AcDbLine
 10
184.1391
 20
34.626
 30
0.0
 11
185.4976
 21
34.65959999999999
 31
0.0
  0
LINE
  5
340
330
1E
100
AcDbEntity
  8
default
  6
Continuous
 62
     1
100
AcDbLine
 10
184.1391
 20
-34.626
 30
0.0
 11
185.4976
 21
-34.65959999999999
 31
0.0
  0
LINE
  5
341
330
1E
100
AcDbEntity
  8
default
  6
Continuous
 62
     1
100
AcDbLine
 10
185.4976
 20
34.65959999999999
 30
0.0
 11
186.8574999999999
 21
34.67969999999999
 31
0.0
  0
LINE
  5
342
330
1E
100
AcDbEntity
  8
default
  6
Continuous
 62
     1
100
AcDbLine
 10
185.4976
 20
-34.65959999999999
 30
0.0
 11
186.8574999999999
 21
-34.67969999999999
 31
0.0
  0
LINE
  5
343
330
1E
100
AcDbEntity
  8
default
  6
Continuous
 62
     1
100
AcDbLine
 10
186.8574999999999
 20
34.67969999999999
 30
0.0
 11
188.2182
 21
34.6864
 31
0.0
  0
LINE
  5
344
330
1E
100
AcDbEntity
  8
default
  6
Continuous
 62
     1
100
AcDbLine
 10
186.8574999999999
 20
-34.67969999999999
 30
0.0
 11
188.2182
 21
-34.6864
 31
0.0
  0
LINE
  5
345
330
1E
100
AcDbEntity
  8
default
  6
Continuous
 62
     1
100
AcDbLine
 10
188.2182
 20
34.6864
 30
0.0
 11
188.2182
 21
-34.6864
 31
0.0
  0
LINE
  5
346
330
1E
100
AcDbEntity
  8
default
  6
Continuous
 62
     1
100
AcDbLine
 10
56.5685
 20
56.5685
 30
0.0
 11
57.3995
 21
57.6927
 31
0.0
  0
LINE
  5
347
330
1E
100
AcDbEntity
  8
default
  6
Continuous
 62
     1
100
AcDbLine
 10
56.5685
 20
56.5685
 30
0.0
 11
57.6927
 21
57.3995
 31
0.0
  0
LINE
  5
348
330
1E
100
AcDbEntity
  8
default
  6
Continuous
 62
     1
100
AcDbLine
 10
57.3995
 20
57.6927
 30
0.0
 11
58.2175
 21
58.8211
 31
0.0
  0
LINE
  5
349
330
1E
100
AcDbEntity
  8
default
  6
Continuous
 62
     1
100
AcDbLine
 10
57.6927
 20
57.3995
 30
0.0
 11
58.8211
 21
58.2175
 31
0.0
  0
LINE
  5
34A
330
1E
100
AcDbEntity
  8
default
  6
Continuous
 62
     1
100
AcDbLine
 10
58.2175
 20
58.8211
 30
0.0
 11
59.0219
 21
59.95280000000001
 31
0.0
  0
LINE
  5
34B
330
1E
100
AcDbEntity
  8
default
  6
Continuous
 62
     1
100
AcDbLine
 10
58.8211
 20
58.2175
 30
0.0
 11
59.95280000000001
 21
59.0219
 31
0.0
  0
LINE
  5
34C
330
1E
100
AcDbEntity
  8
default
  6
Continuous
 62
     1
100
AcDbLine
 10
59.0219
 20
59.95280000000001
 30
0.0
 11
59.8123
 21
61.0871
 31
0.0
  0
LINE
  5
34D
330
1E
100
AcDbEntity
  8
default
  6
Continuous
 62
     1
100
AcDbLine
 10
59.95280000000001
 20
59.0219
 30
0.0
 11
61.0871
 21
59.8123
 31
0.0
  0
LINE
  5
34E
330
1E
100
AcDbEntity
  8
default
  6
Continuous
 62
     1
100
AcDbLine
 10
59.8123
 20
61.0871
 30
0.0
 11
60.5881
 21
62.22319999999999
 31
0.0
  0
LINE
  5
34F
330
1E
100
AcDbEntity
  8
default
  6
Continuous
 62
     1
100
AcDbLine
 10
61.0871
 20
59.8123
 30
0.0
 11
62.22319999999999
 21
60.5881
 31
0.0
  0
LINE
  5
350
330
1E
100
AcDbEntity
  8
default
  6
Continuous
 62
     1
100
AcDbLine
 10
60.5881
 20
62.22319999999999
 30
0.0
 11
61.34879999999999
 21
63.3603
 31
0.0
  0
LINE
  5
351
330
1E
100
AcDbEntity
  8
default
  6
Continuous
 62
     1
100
AcDbLine
 10
62.22319999999999
 20
60.5881
 30
0.0
 11
63.3603
 21
61.34879999999999
 31
0.0
  0
LINE
  5
352
330
1E
100
AcDbEntity
  8
default
  6
Continuous
 62
     1
100
AcDbLine
 10
61.34879999999999
 20
63.3603
 30
0.0
 11
62.0938
 21
64.4977
 31
0.0
  0
LINE
  5
353
330
1E
100
AcDbEntity
  8
default
  6
Continuous
 62
     1
100
AcDbLine
 10
63.3603
 20
61.34879999999999
 30
0.0
 11
64.4977
 21
62.0938
 31
0.0
  0
LINE
  5
354
330
1E
100
AcDbEntity
  8
default
  6
Continuous
 62
     1
100
AcDbLine
 10
62.0938
 20
64.4977
 30
0.0
 11
62.8228
 21
65.6345
 31
0.0
  0
LINE
  5
355
330
1E
100
AcDbEntity
  8
default
  6
Continuous
 62
     1
100
AcDbLine
 10
64.4977
 20
62.0938
 30
0.0
 11
65.6345
 21
62.8228
 31
0.0
  0
LINE
  5
356
330
1E
100
AcDbEntity
  8
default
  6
Continuous
 62
     1
100
AcDbLine
 10
62.8228
 20
65.6345
 30
0.0
 11
63.53509999999999
 21
66.76999999999999
 31
0.0
  0
LINE
  5
357
330
1E
100
AcDbEntity
  8
default
  6
Continuous
 62
     1
100
AcDbLine
 10
65.6345
 20
62.8228
 30
0.0
 11
66.76999999999999
 21
63.53509999999999
 31
0.0
  0
LINE
  5
358
330
1E
100
AcDbEntity
  8
default
  6
Continuous
 62
     1
100
AcDbLine
 10
63.53509999999999
 20
66.76999999999999
 30
0.0
 11
64.2305
 21
67.9034
 31
0.0
  0
LINE
  5
359
330
1E
100
AcDbEntity
  8
default
  6
Continuous
 62
     1
100
AcDbLine
 10
66.76999999999999
 20
63.53509999999999
 30
0.0
 11
67.9034
 21
64.2305
 31
0.0
  0
LINE
  5
35A
330
1E
100
AcDbEntity
  8
default
  6
Continuous
 62
     1
100
AcDbLine
 10
64.2305
 20
67.9034
 30
0.0
 11
64.9084
 21
69.0339
 31
0.0
  0
LINE
  5
35B
330
1E
100
AcDbEntity
  8
default
  6
Continuous
 62
     1
100
AcDbLine
 10
67.9034
 20
64.2305
 30
0.0
 11
69.0339
 21
64.9084
 31
0.0
  0
LINE
  5
35C
330
1E
100
AcDbEntity
  8
default
  6
Continuous
 62
     1
100
AcDbLine
 10
64.9084
 20
69.0339
 30
0.0
 11
65.5684
 21
70.161
 31
0.0
  0
LINE
  5
35D
330
1E
100
AcDbEntity
  8
default
  6
Continuous
 62
     1
100
AcDbLine
 10
69.0339
 20
64.9084
 30
0.0
 11
70.161
 21
65.5684
 31
0.0
  0
LINE
  5
35E
330
1E
100
AcDbEntity
  8
default
  6
Continuous
 62
     1
100
AcDbLine
 10
65.5684
 20
70.161
 30
0.0
 11
66.21030000000001
 21
71.2837
 31
0.0
  0
LINE
  5
35F
330
1E
100
AcDbEntity
  8
default
  6
Continuous
 62
     1
100
AcDbLine
 10
70.161
 20
65.5684
 30
0.0
 11
71.2837
 21
66.21030000000001
 31
0.0
  0
LINE
  5
360
330
1E
100
AcDbEntity
  8
default
  6
Continuous
 62
     1
100
AcDbLine
 10
66.21030000000001
 20
71.2837
 30
0.0
 11
66.8336
 21
72.4014
 31
0.0
  0
LINE
  5
361
330
1E
100
AcDbEntity
  8
default
  6
Continuous
 62
     1
100
AcDbLine
 10
71.2837
 20
66.21030000000001
 30
0.0
 11
72.4014
 21
66.8336
 31
0.0
  0
LINE
  5
362
330
1E
100
AcDbEntity
  8
default
  6
Continuous
 62
     1
100
AcDbLine
 10
66.8336
 20
72.4014
 30
0.0
 11
67.438
 21
73.51359999999999
 31
0.0
  0
LINE
  5
363
330
1E
100
AcDbEntity
  8
default
  6
Continuous
 62
     1
100
AcDbLine
 10
72.4014
 20
66.8336
 30
0.0
 11
73.51359999999999
 21
67.438
 31
0.0
  0
LINE
  5
364
330
1E
100
AcDbEntity
  8
default
  6
Continuous
 62
     1
100
AcDbLine
 10
67.438
 20
73.51359999999999
 30
0.0
 11
68.02330000000001
 21
74.6194
 31
0.0
  0
LINE
  5
365
330
1E
100
AcDbEntity
  8
default
  6
Continuous
 62
     1
100
AcDbLine
 10
73.51359999999999
 20
67.438
 30
0.0
 11
74.6194
 21
68.02330000000001
 31
0.0
  0
LINE
  5
366
330
1E
100
AcDbEntity
  8
default
  6
Continuous
 62
     1
100
AcDbLine
 10
68.02330000000001
 20
74.6194
 30
0.0
 11
68.58920000000001
 21
75.7183
 31
0.0
  0
LINE
  5
367
330
1E
100
AcDbEntity
  8
default
  6
Continuous
 62
     1
100
AcDbLine
 10
74.6194
 20
68.02330000000001
 30
0.0
 11
75.7183
 21
68.58920000000001
 31
0.0
  0
LINE
  5
368
330
1E
100
AcDbEntity
  8
default
  6
Continuous
 62
     1
100
AcDbLine
 10
68.58920000000001
 20
75.7183
 30
0.0
 11
69.1356
 21
76.80970000000001
 31
0.0
  0
LINE
  5
369
330
1E
100
AcDbEntity
  8
default
  6
Continuous
 62
     1
100
AcDbLine
 10
75.7183
 20
68.58920000000001
 30
0.0
 11
76.80970000000001
 21
69.1356
 31
0.0
  0
LINE
  5
36A
330
1E
100
AcDbEntity
  8
default
  6
Continuous
 62
     1
100
AcDbLine
 10
69.1356
 20
76.80970000000001
 30
0.0
 11
69.66219999999999
 21
77.893
 31
0.0
  0
LINE
  5
36B
330
1E
100
AcDbEntity
  8
default
  6
Continuous
 62
     1
100
AcDbLine
 10
76.80970000000001
 20
69.1356
 30
0.0
 11
77.893
 21
69.66219999999999
 31
0.0
  0
LINE
  5
36C
330
1E
100
AcDbEntity
  8
default
  6
Continuous
 62
     1
100
AcDbLine
 10
69.66219999999999
 20
77.893
 30
0.0
 11
70.1691
 21
78.96779999999999
 31
0.0
  0
LINE
  5
36D
330
1E
100
AcDbEntity
  8
default
  6
Continuous
 62
     1
100
AcDbLine
 10
77.893
 20
69.66219999999999
 30
0.0
 11
78.96779999999999
 21
70.1691
 31
0.0
  0
LINE
  5
36E
330
1E
100
AcDbEntity
  8
default
  6
Continuous
 62
     1
100
AcDbLine
 10
70.1691
 20
78.96779999999999
 30
0.0
 11
70.65609999999999
 21
80.0336
 31
0.0
  0
LINE
  5
36F
330
1E
100
AcDbEntity
  8
default
  6
Continuous
 62
     1
100
AcDbLine
 10
78.96779999999999
 20
70.1691
 30
0.0
 11
80.0336
 21
70.65609999999999
 31
0.0
  0
LINE
  5
370
330
1E
100
AcDbEntity
  8
default
  6
Continuous
 62
     1
100
AcDbLine
 10
70.65609999999999
 20
80.0336
 30
0.0
 11
71.1233
 21
81.08999999999999
 31
0.0
  0
LINE
  5
371
330
1E
100
AcDbEntity
  8
default
  6
Continuous
 62
     1
100
AcDbLine
 10
80.0336
 20
70.65609999999999
 30
0.0
 11
81.08999999999999
 21
71.1233
 31
0.0
  0
LINE
  5
372
330
1E
100
AcDbEntity
  8
default
  6
Continuous
 62
     1
100
AcDbLine
 10
71.1233
 20
81.08999999999999
 30
0.0
 11
71.5708
 21
82.1366
 31
0.0
  0
LINE
  5
373
330
1E
100
AcDbEntity
  8
default
  6
Continuous
 62
     1
100
AcDbLine
 10
81.08999999999999
 20
71.1233
 30
0.0
 11
82.1366
 21
71.5708
 31
0.0
  0
LINE
  5
374
330
1E
100
AcDbEntity
  8
default
  6
Continuous
 62
     1
100
AcDbLine
 10
71.5708
 20
82.1366
 30
0.0
 11
71.9987
 21
83.1731
 31
0.0
  0
LINE
  5
375
330
1E
100
AcDbEntity
  8
default
  6
Continuous
 62
     1
100
AcDbLine
 10
82.1366
 20
71.5708
 30
0.0
 11
83.1731
 21
71.9987
 31
0.0
  0
LINE
  5
376
330
1E
100
AcDbEntity
  8
default
  6
Continuous
 62
     1
100
AcDbLine
 10
71.9987
 20
83.1731
 30
0.0
 11
72.40709999999999
 21
84.19920000000001
 31
0.0
  0
LINE
  5
377
330
1E
100
AcDbEntity
  8
default
  6
Continuous
 62
     1
100
AcDbLine
 10
83.1731
 20
71.9987
 30
0.0
 11
84.19920000000001
 21
72.40709999999999
 31
0.0
  0
LINE
  5
378
330
1E
100
AcDbEntity
  8
default
  6
Continuous
 62
     1
100
AcDbLine
 10
72.40709999999999
 20
84.19920000000001
 30
0.0
 11
72.7965
 21
85.2149
 31
0.0
  0
LINE
  5
379
330
1E
100
AcDbEntity
  8
default
  6
Continuous
 62
     1
100
AcDbLine
 10
84.19920000000001
 20
72.40709999999999
 30
0.0
 11
85.2149
 21
72.7965
 31
0.0
  0
LINE
  5
37A
330
1E
100
AcDbEntity
  8
default
  6
Continuous
 62
     1
100
AcDbLine
 10
72.7965
 20
85.2149
 30
0.0
 11
73.1671
 21
86.2199
 31
0.0
  0
LINE
  5
37B
330
1E
100
AcDbEntity
  8
default
  6
Continuous
 62
     1
100
AcDbLine
 10
85.2149
 20
72.7965
 30
0.0
 11
86.2199
 21
73.1671
 31
0.0
  0
LINE
  5
37C
330
1E
100
AcDbEntity
  8
default
  6
Continuous
 62
     1
100
AcDbLine
 10
73.1671
 20
86.2199
 30
0.0
 11
73.5194
 21
87.21439999999999
 31
0.0
  0
LINE
  5
37D
330
1E
100
AcDbEntity
  8
default
  6
Continuous
 62
     1
100
AcDbLine
 10
86.2199
 20
73.1671
 30
0.0
 11
87.21439999999999
 21
73.5194
 31
0.0
  0
LINE
  5
37E
330
1E
100
AcDbEntity
  8
default
  6
Continuous
 62
     1
100
AcDbLine
 10
73.5194
 20
87.21439999999999
 30
0.0
 11
73.854
 21
88.19819999999999
 31
0.0
  0
LINE
  5
37F
330
1E
100
AcDbEntity
  8
default
  6
Continuous
 62
     1
100
AcDbLine
 10
87.21439999999999
 20
73.5194
 30
0.0
 11
88.19819999999999
 21
73.854
 31
0.0
  0
LINE
  5
380
330
1E
100
AcDbEntity
  8
default
  6
Continuous
 62
     1
100
AcDbLine
 10
73.854
 20
88.19819999999999
 30
0.0
 11
74.1714
 21
89.1717
 31
0.0
  0
LINE
  5
381
330
1E
100
AcDbEntity
  8
default
  6
Continuous
 62
     1
100
AcDbLine
 10
88.19819999999999
 20
73.854
 30
0.0
 11
89.1717
 21
74.1714
 31
0.0
  0
LINE
  5
382
330
1E
100
AcDbEntity
  8
default
  6
Continuous
 62
     1
100
AcDbLine
 10
74.1714
 20
89.1717
 30
0.0
 11
74.47239999999999
 21
90.1349
 31
0.0
  0
LINE
  5
383
330
1E
100
AcDbEntity
  8
default
  6
Continuous
 62
     1
100
AcDbLine
 10
89.1717
 20
74.1714
 30
0.0
 11
90.1349
 21
74.47239999999999
 31
0.0
  0
LINE
  5
384
330
1E
100
AcDbEntity
  8
default
  6
Continuous
 62
     1
100
AcDbLine
 10
74.47239999999999
 20
90.1349
 30
0.0
 11
74.7577
 21
91.08830000000001
 31
0.0
  0
LINE
  5
385
330
1E
100
AcDbEntity
  8
default
  6
Continuous
 62
     1
100
AcDbLine
 10
90.1349
 20
74.47239999999999
 30
0.0
 11
91.08830000000001
 21
74.7577
 31
0.0
  0
LINE
  5
386
330
1E
100
AcDbEntity
  8
default
  6
Continuous
 62
     1
100
AcDbLine
 10
74.7577
 20
91.08830000000001
 30
0.0
 11
75.02849999999999
 21
92.03219999999999
 31
0.0
  0
LINE
  5
387
330
1E
100
AcDbEntity
  8
default
  6
Continuous
 62
     1
100
AcDbLine
 10
91.08830000000001
 20
74.7577
 30
0.0
 11
92.03219999999999
 21
75.02849999999999
 31
0.0
  0
LINE
  5
388
330
1E
100
AcDbEntity
  8
default
  6
Continuous
 62
     1
100
AcDbLine
 10
75.02849999999999
 20
92.03219999999999
 30
0.0
 11
75.2855
 21
92.9673
 31
0.0
  0
LINE
  5
389
330
1E
100
AcDbEntity
  8
default
  6
Continuous
 62
     1
100
AcDbLine
 10
92.03219999999999
 20
75.02849999999999
 30
0.0
 11
92.9673
 21
75.2855
 31
0.0
  0
LINE
  5
38A
330
1E
100
AcDbEntity
  8
default
  6
Continuous
 62
     1
100
AcDbLine
 10
75.2855
 20
92.9673
 30
0.0
 11
75.5301
 21
93.894
 31
0.0
  0
LINE
  5
38B
330
1E
100
AcDbEntity
  8
default
  6
Continuous
 62
     1
100
AcDbLine
 10
92.9673
 20
75.2855
 30
0.0
 11
93.894
 21
75.5301
 31
0.0
  0
LINE
  5
38C
330
1E
100
AcDbEntity
  8
default
  6
Continuous
 62
     1
100
AcDbLine
 10
75.5301
 20
93.894
 30
0.0
 11
75.7633
 21
94.81329999999999
 31
0.0
  0
LINE
  5
38D
330
1E
100
AcDbEntity
  8
default
  6
Continuous
 62
     1
100
AcDbLine
 10
93.894
 20
75.5301
 30
0.0
 11
94.81329999999999
 21
75.7633
 31
0.0
  0
LINE
  5
38E
330
1E
100
AcDbEntity
  8
default
  6
Continuous
 62
     1
100
AcDbLine
 10
75.7633
 20
94.81329999999999
 30
0.0
 11
75.98659999999999
 21
95.7258
 31
0.0
  0
LINE
  5
38F
330
1E
100
AcDbEntity
  8
default
  6
Continuous
 62
     1
100
AcDbLine
 10
94.81329999999999
 20
75.7633
 30
0.0
 11
95.7258
 21
75.98659999999999
 31
0.0
  0
LINE
  5
390
330
1E
100
AcDbEntity
  8
default
  6
Continuous
 62
     1
100
AcDbLine
 10
75.98659999999999
 20
95.7258
 30
0.0
 11
76.20140000000001
 21
96.63240000000001
 31
0.0
  0
LINE
  5
391
330
1E
100
AcDbEntity
  8
default
  6
Continuous
 62
     1
100
AcDbLine
 10
95.7258
 20
75.98659999999999
 30
0.0
 11
96.63240000000001
 21
76.20140000000001
 31
0.0
  0
LINE
  5
392
330
1E
100
AcDbEntity
  8
default
  6
Continuous
 62
     1
100
AcDbLine
 10
76.20140000000001
 20
96.63240000000001
 30
0.0
 11
76.40909999999999
 21
97.53430000000001
 31
0.0
  0
LINE
  5
393
330
1E
100
AcDbEntity
  8
default
  6
Continuous
 62
     1
100
AcDbLine
 10
96.63240000000001
 20
76.20140000000001
 30
0.0
 11
97.53430000000001
 21
76.40909999999999
 31
0.0
  0
LINE
  5
394
330
1E
100
AcDbEntity
  8
default
  6
Continuous
 62
     1
100
AcDbLine
 10
76.40909999999999
 20
97.53430000000001
 30
0.0
 11
76.61129999999999
 21
98.4323
 31
0.0
  0
LINE
  5
395
330
1E
100
AcDbEntity
  8
default
  6
Continuous
 62
     1
100
AcDbLine
 10
97.53430000000001
 20
76.40909999999999
 30
0.0
 11
98.4323
 21
76.61129999999999
 31
0.0
  0
LINE
  5
396
330
1E
100
AcDbEntity
  8
default
  6
Continuous
 62
     1
100
AcDbLine
 10
76.61129999999999
 20
98.4323
 30
0.0
 11
76.80970000000001
 21
99.32769999999999
 31
0.0
  0
LINE
  5
397
330
1E
100
AcDbEntity
  8
default
  6
Continuous
 62
     1
100
AcDbLine
 10
98.4323
 20
76.61129999999999
 30
0.0
 11
99.32769999999999
 21
76.80970000000001
 31
0.0
  0
LINE
  5
398
330
1E
100
AcDbEntity
  8
default
  6
Continuous
 62
     1
100
AcDbLine
 10
76.80970000000001
 20
99.32769999999999
 30
0.0
 11
77.0059
 21
100.2215999999999
 31
0.0
  0
LINE
  5
399
330
1E
100
AcDbEntity
  8
default
  6
Continuous
 62
     1
100
AcDbLine
 10
99.32769999999999
 20
76.80970000000001
 30
0.0
 11
100.2215999999999
 21
77.0059
 31
0.0
  0
LINE
  5
39A
330
1E
100
AcDbEntity
  8
default
  6
Continuous
 62
     1
100
AcDbLine
 10
77.0059
 20
100.2215999999999
 30
0.0
 11
77.2017
 21
101.1150999999999
 31
0.0
  0
LINE
  5
39B
330
1E
100
AcDbEntity
  8
default
  6
Continuous
 62
     1
100
AcDbLine
 10
100.2215999999999
 20
77.0059
 30
0.0
 11
101.1150999999999
 21
77.2017
 31
0.0
  0
LINE
  5
39C
330
1E
100
AcDbEntity
  8
default
  6
Continuous
 62
     1
100
AcDbLine
 10
77.2017
 20
101.1150999999999
 30
0.0
 11
77.3982
 21
102.0091
 31
0.0
  0
LINE
  5
39D
330
1E
100
AcDbEntity
  8
default
  6
Continuous
 62
     1
100
AcDbLine
 10
101.1150999999999
 20
77.2017
 30
0.0
 11
102.0091
 21
77.3982
 31
0.0
  0
LINE
  5
39E
330
1E
100
AcDbEntity
  8
default
  6
Continuous
 62
     1
100
AcDbLine
 10
77.3982
 20
102.0091
 30
0.0
 11
77.5966
 21
102.9041
 31
0.0
  0
LINE
  5
39F
330
1E
100
AcDbEntity
  8
default
  6
Continuous
 62
     1
100
AcDbLine
 10
102.0091
 20
77.3982
 30
0.0
 11
102.9041
 21
77.5966
 31
0.0
  0
LINE
  5
3A0
330
1E
100
AcDbEntity
  8
default
  6
Continuous
 62
     1
100
AcDbLine
 10
77.5966
 20
102.9041
 30
0.0
 11
77.79810000000001
 21
103.8007
 31
0.0
  0
LINE
  5
3A1
330
1E
100
AcDbEntity
  8
default
  6
Continuous
 62
     1
100
AcDbLine
 10
102.9041
 20
77.5966
 30
0.0
 11
103.8007
 21
77.79810000000001
 31
0.0
  0
LINE
  5
3A2
330
1E
100
AcDbEntity
  8
default
  6
Continuous
 62
     1
100
AcDbLine
 10
77.79810000000001
 20
103.8007
 30
0.0
 11
78.00360000000001
 21
104.6993999999999
 31
0.0
  0
LINE
  5
3A3
330
1E
100
AcDbEntity
  8
default
  6
Continuous
 62
     1
100
AcDbLine
 10
103.8007
 20
77.79810000000001
 30
0.0
 11
104.6993999999999
 21
78.00360000000001
 31
0.0
  0
LINE
  5
3A4
330
1E
100
AcDbEntity
  8
default
  6
Continuous
 62
     1
100
AcDbLine
 10
78.00360000000001
 20
104.6993999999999
 30
0.0
 11
78.21429999999999
 21
105.6008999999999
 31
0.0
  0
LINE
  5
3A5
330
1E
100
AcDbEntity
  8
default
  6
Continuous
 62
     1
100
AcDbLine
 10
104.6993999999999
 20
78.00360000000001
 30
0.0
 11
105.6008999999999
 21
78.21429999999999
 31
0.0
  0
LINE
  5
3A6
330
1E
100
AcDbEntity
  8
default
  6
Continuous
 62
     1
100
AcDbLine
 10
78.21429999999999
 20
105.6008999999999
 30
0.0
 11
78.4311
 21
106.5056
 31
0.0
  0
LINE
  5
3A7
330
1E
100
AcDbEntity
  8
default
  6
Continuous
 62
     1
100
AcDbLine
 10
105.6008999999999
 20
78.21429999999999
 30
0.0
 11
106.5056
 21
78.4311
 31
0.0
  0
LINE
  5
3A8
330
1E
100
AcDbEntity
  8
default
  6
Continuous
 62
     1
100
AcDbLine
 10
78.4311
 20
106.5056
 30
0.0
 11
78.6551
 21
107.414
 31
0.0
  0
LINE
  5
3A9
330
1E
100
AcDbEntity
  8
default
  6
Continuous
 62
     1
100
AcDbLine
 10
106.5056
 20
78.4311
 30
0.0
 11
107.414
 21
78.6551
 31
0.0
  0
LINE
  5
3AA
330
1E
100
AcDbEntity
  8
default
  6
Continuous
 62
     1
100
AcDbLine
 10
78.6551
 20
107.414
 30
0.0
 11
78.88720000000001
 21
108.3264999999999
 31
0.0
  0
LINE
  5
3AB
330
1E
100
AcDbEntity
  8
default
  6
Continuous
 62
     1
100
AcDbLine
 10
107.414
 20
78.6551
 30
0.0
 11
108.3264999999999
 21
78.88720000000001
 31
0.0
  0
LINE
  5
3AC
330
1E
100
AcDbEntity
  8
default
  6
Continuous
 62
     1
100
AcDbLine
 10
78.88720000000001
 20
108.3264999999999
 30
0.0
 11
79.1284
 21
109.2435999999999
 31
0.0
  0
LINE
  5
3AD
330
1E
100
AcDbEntity
  8
default
  6
Continuous
 62
     1
100
AcDbLine
 10
108.3264999999999
 20
78.88720000000001
 30
0.0
 11
109.2435999999999
 21
79.1284
 31
0.0
  0
LINE
  5
3AE
330
1E
100
AcDbEntity
  8
default
  6
Continuous
 62
     1
100
AcDbLine
 10
79.1284
 20
109.2435999999999
 30
0.0
 11
79.37940000000001
 21
110.1657
 31
0.0
  0
LINE
  5
3AF
330
1E
100
AcDbEntity
  8
default
  6
Continuous
 62
     1
100
AcDbLine
 10
109.2435999999999
 20
79.1284
 30
0.0
 11
110.1657
 21
79.37940000000001
 31
0.0
  0
LINE
  5
3B0
330
1E
100
AcDbEntity
  8
default
  6
Continuous
 62
     1
100
AcDbLine
 10
79.37940000000001
 20
110.1657
 30
0.0
 11
79.64109999999999
 21
111.0929999999999
 31
0.0
  0
LINE
  5
3B1
330
1E
100
AcDbEntity
  8
default
  6
Continuous
 62
     1
100
AcDbLine
 10
110.1657
 20
79.37940000000001
 30
0.0
 11
111.0929999999999
 21
79.64109999999999
 31
0.0
  0
LINE
  5
3B2
330
1E
100
AcDbEntity
  8
default
  6
Continuous
 62
     1
100
AcDbLine
 10
79.64109999999999
 20
111.0929999999999
 30
0.0
 11
79.9144
 21
112.0257999999999
 31
0.0
  0
LINE
  5
3B3
330
1E
100
AcDbEntity
  8
default
  6
Continuous
 62
     1
100
AcDbLine
 10
111.0929999999999
 20
79.64109999999999
 30
0.0
 11
112.0257999999999
 21
79.9144
 31
0.0
  0
LINE
  5
3B4
330
1E
100
AcDbEntity
  8
default
  6
Continuous
 62
     1
100
AcDbLine
 10
79.9144
 20
112.0257999999999
 30
0.0
 11
80.1998
 21
112.9644
 31
0.0
  0
LINE
  5
3B5
330
1E
100
AcDbEntity
  8
default
  6
Continuous
 62
     1
100
AcDbLine
 10
112.0257999999999
 20
79.9144
 30
0.0
 11
112.9644
 21
80.1998
 31
0.0
  0
LINE
  5
3B6
330
1E
100
AcDbEntity
  8
default
  6
Continuous
 62
     1
100
AcDbLine
 10
80.1998
 20
112.9644
 30
0.0
 11
80.4982
 21
113.9089
 31
0.0
  0
LINE
  5
3B7
330
1E
100
AcDbEntity
  8
default
  6
Continuous
 62
     1
100
AcDbLine
 10
112.9644
 20
80.1998
 30
0.0
 11
113.9089
 21
80.4982
 31
0.0
  0
LINE
  5
3B8
330
1E
100
AcDbEntity
  8
default
  6
Continuous
 62
     1
100
AcDbLine
 10
80.4982
 20
113.9089
 30
0.0
 11
80.81000000000001
 21
114.8595999999999
 31
0.0
  0
LINE
  5
3B9
330
1E
100
AcDbEntity
  8
default
  6
Continuous
 62
     1
100
AcDbLine
 10
113.9089
 20
80.4982
 30
0.0
 11
114.8595999999999
 21
80.81000000000001
 31
0.0
  0
LINE
  5
3BA
330
1E
100
AcDbEntity
  8
default
  6
Continuous
 62
     1
100
AcDbLine
 10
80.81000000000001
 20
114.8595999999999
 30
0.0
 11
81.13599999999999
 21
115.8165
 31
0.0
  0
LINE
  5
3BB
330
1E
100
AcDbEntity
  8
default
  6
Continuous
 62
     1
100
AcDbLine
 10
114.8595999999999
 20
80.81000000000001
 30
0.0
 11
115.8165
 21
81.13599999999999
 31
0.0
  0
LINE
  5
3BC
330
1E
100
AcDbEntity
  8
default
  6
Continuous
 62
     1
100
AcDbLine
 10
81.13599999999999
 20
115.8165
 30
0.0
 11
81.4765
 21
116.7796999999999
 31
0.0
  0
LINE
  5
3BD
330
1E
100
AcDbEntity
  8
default
  6
Continuous
 62
     1
100
AcDbLine
 10
115.8165
 20
81.13599999999999
 30
0.0
 11
116.7796999999999
 21
81.4765
 31
0.0
  0
LINE
  5
3BE
330
1E
100
AcDbEntity
  8
default
  6
Continuous
 62
     1
100
AcDbLine
 10
81.4765
 20
116.7796999999999
 30
0.0
 11
81.8322
 21
117.7491
 31
0.0
  0
LINE
  5
3BF
330
1E
100
AcDbEntity
  8
default
  6
Continuous
 62
     1
100
AcDbLine
 10
116.7796999999999
 20
81.4765
 30
0.0
 11
117.7491
 21
81.8322
 31
0.0
  0
LINE
  5
3C0
330
1E
100
AcDbEntity
  8
default
  6
Continuous
 62
     1
100
AcDbLine
 10
81.8322
 20
117.7491
 30
0.0
 11
82.2034
 21
118.7248999999999
 31
0.0
  0
LINE
  5
3C1
330
1E
100
AcDbEntity
  8
default
  6
Continuous
 62
     1
100
AcDbLine
 10
117.7491
 20
81.8322
 30
0.0
 11
118.7248999999999
 21
82.2034
 31
0.0
  0
LINE
  5
3C2
330
1E
100
AcDbEntity
  8
default
  6
Continuous
 62
     1
100
AcDbLine
 10
82.2034
 20
118.7248999999999
 30
0.0
 11
82.59059999999999
 21
119.7069
 31
0.0
  0
LINE
  5
3C3
330
1E
100
AcDbEntity
  8
default
  6
Continuous
 62
     1
100
AcDbLine
 10
118.7248999999999
 20
82.2034
 30
0.0
 11
119.7069
 21
82.59059999999999
 31
0.0
  0
LINE
  5
3C4
330
1E
100
AcDbEntity
  8
default
  6
Continuous
 62
     1
100
AcDbLine
 10
82.59059999999999
 20
119.7069
 30
0.0
 11
82.994
 21
120.6949999999999
 31
0.0
  0
LINE
  5
3C5
330
1E
100
AcDbEntity
  8
default
  6
Continuous
 62
     1
100
AcDbLine
 10
119.7069
 20
82.59059999999999
 30
0.0
 11
120.6949999999999
 21
82.994
 31
0.0
  0
LINE
  5
3C6
330
1E
100
AcDbEntity
  8
default
  6
Continuous
 62
     1
100
AcDbLine
 10
82.994
 20
120.6949999999999
 30
0.0
 11
83.414
 21
121.6890999999999
 31
0.0
  0
LINE
  5
3C7
330
1E
100
AcDbEntity
  8
default
  6
Continuous
 62
     1
100
AcDbLine
 10
120.6949999999999
 20
82.994
 30
0.0
 11
121.6890999999999
 21
83.414
 31
0.0
  0
LINE
  5
3C8
330
1E
100
AcDbEntity
  8
default
  6
Continuous
 62
     1
100
AcDbLine
 10
83.414
 20
121.6890999999999
 30
0.0
 11
83.85089999999999
 21
122.689
 31
0.0
  0
LINE
  5
3C9
330
1E
100
AcDbEntity
  8
default
  6
Continuous
 62
     1
100
AcDbLine
 10
121.6890999999999
 20
83.414
 30
0.0
 11
122.689
 21
83.85089999999999
 31
0.0
  0
LINE
  5
3CA
330
1E
100
AcDbEntity
  8
default
  6
Continuous
 62
     1
100
AcDbLine
 10
83.85089999999999
 20
122.689
 30
0.0
 11
84.3049
 21
123.6945999999999
 31
0.0
  0
LINE
  5
3CB
330
1E
100
AcDbEntity
  8
default
  6
Continuous
 62
     1
100
AcDbLine
 10
122.689
 20
83.85089999999999
 30
0.0
 11
123.6945999999999
 21
84.3049
 31
0.0
  0
LINE
  5
3CC
330
1E
100
AcDbEntity
  8
default
  6
Continuous
 62
     1
100
AcDbLine
 10
84.3049
 20
123.6945999999999
 30
0.0
 11
84.7761
 21
124.7056
 31
0.0
  0
LINE
  5
3CD
330
1E
100
AcDbEntity
  8
default
  6
Continuous
 62
     1
100
AcDbLine
 10
123.6945999999999
 20
84.3049
 30
0.0
 11
124.7056
 21
84.7761
 31
0.0
  0
LINE
  5
3CE
330
1E
100
AcDbEntity
  8
default
  6
Continuous
 62
     1
100
AcDbLine
 10
84.7761
 20
124.7056
 30
0.0
 11
85.26470000000001
 21
125.7217999999999
 31
0.0
  0
LINE
  5
3CF
330
1E
100
AcDbEntity
  8
default
  6
Continuous
 62
     1
100
AcDbLine
 10
124.7056
 20
84.7761
 30
0.0
 11
125.7217999999999
 21
85.26470000000001
 31
0.0
  0
LINE
  5
3D0
330
1E
100
AcDbEntity
  8
default
  6
Continuous
 62
     1
100
AcDbLine
 10
85.26470000000001
 20
125.7217999999999
 30
0.0
 11
85.7708
 21
126.7429
 31
0.0
  0
LINE
  5
3D1
330
1E
100
AcDbEntity
  8
default
  6
Continuous
 62
     1
100
AcDbLine
 10
125.7217999999999
 20
85.26470000000001
 30
0.0
 11
126.7429
 21
85.7708
 31
0.0
  0
LINE
  5
3D2
330
1E
100
AcDbEntity
  8
default
  6
Continuous
 62
     1
100
AcDbLine
 10
85.7708
 20
126.7429
 30
0.0
 11
86.29459999999999
 21
127.7686
 31
0.0
  0
LINE
  5
3D3
330
1E
100
AcDbEntity
  8
default
  6
Continuous
 62
     1
100
AcDbLine
 10
126.7429
 20
85.7708
 30
0.0
 11
127.7686
 21
86.29459999999999
 31
0.0
  0
LINE
  5
3D4
330
1E
100
AcDbEntity
  8
default
  6
Continuous
 62
     1
100
AcDbLine
 10
86.29459999999999
 20
127.7686
 30
0.0
 11
86.836
 21
128.7985999999999
 31
0.0
  0
LINE
  5
3D5
330
1E
100
AcDbEntity
  8
default
  6
Continuous
 62
     1
100
AcDbLine
 10
127.7686
 20
86.29459999999999
 30
0.0
 11
128.7985999999999
 21
86.836
 31
0.0
  0
LINE
  5
3D6
330
1E
100
AcDbEntity
  8
default
  6
Continuous
 62
     1
100
AcDbLine
 10
86.836
 20
128.7985999999999
 30
0.0
 11
87.3951
 21
129.8326
 31
0.0
  0
LINE
  5
3D7
330
1E
100
AcDbEntity
  8
default
  6
Continuous
 62
     1
100
AcDbLine
 10
128.7985999999999
 20
86.836
 30
0.0
 11
129.8326
 21
87.3951
 31
0.0
  0
LINE
  5
3D8
330
1E
100
AcDbEntity
  8
default
  6
Continuous
 62
     1
100
AcDbLine
 10
87.3951
 20
129.8326
 30
0.0
 11
87.9718
 21
130.8701
 31
0.0
  0
LINE
  5
3D9
330
1E
100
AcDbEntity
  8
default
  6
Continuous
 62
     1
100
AcDbLine
 10
129.8326
 20
87.3951
 30
0.0
 11
130.8701
 21
87.9718
 31
0.0
  0
LINE
  5
3DA
330
1E
100
AcDbEntity
  8
default
  6
Continuous
 62
     1
100
AcDbLine
 10
87.9718
 20
130.8701
 30
0.0
 11
88.56619999999999
 21
131.9107999999999
 31
0.0
  0
LINE
  5
3DB
330
1E
100
AcDbEntity
  8
default
  6
Continuous
 62
     1
100
AcDbLine
 10
130.8701
 20
87.9718
 30
0.0
 11
131.9107999999999
 21
88.56619999999999
 31
0.0
  0
LINE
  5
3DC
330
1E
100
AcDbEntity
  8
default
  6
Continuous
 62
     1
100
AcDbLine
 10
88.56619999999999
 20
131.9107999999999
 30
0.0
 11
89.17810000000001
 21
132.9542999999999
 31
0.0
  0
LINE
  5
3DD
330
1E
100
AcDbEntity
  8
default
  6
Continuous
 62
     1
100
AcDbLine
 10
131.9107999999999
 20
88.56619999999999
 30
0.0
 11
132.9542999999999
 21
89.17810000000001
 31
0.0
  0
LINE
  5
3DE
330
1E
100
AcDbEntity
  8
default
  6
Continuous
 62
     1
100
AcDbLine
 10
89.17810000000001
 20
132.9542999999999
 30
0.0
 11
89.8075
 21
134.0002
 31
0.0
  0
LINE
  5
3DF
330
1E
100
AcDbEntity
  8
default
  6
Continuous
 62
     1
100
AcDbLine
 10
132.9542999999999
 20
89.17810000000001
 30
0.0
 11
134.0002
 21
89.8075
 31
0.0
  0
LINE
  5
3E0
330
1E
100
AcDbEntity
  8
default
  6
Continuous
 62
     1
100
AcDbLine
 10
89.8075
 20
134.0002
 30
0.0
 11
90.45430000000001
 21
135.048
 31
0.0
  0
LINE
  5
3E1
330
1E
100
AcDbEntity
  8
default
  6
Continuous
 62
     1
100
AcDbLine
 10
134.0002
 20
89.8075
 30
0.0
 11
135.048
 21
90.45430000000001
 31
0.0
  0
LINE
  5
3E2
330
1E
100
AcDbEntity
  8
default
  6
Continuous
 62
     1
100
AcDbLine
 10
90.45430000000001
 20
135.048
 30
0.0
 11
91.11819999999999
 21
136.0973999999999
 31
0.0
  0
LINE
  5
3E3
330
1E
100
AcDbEntity
  8
default
  6
Continuous
 62
     1
100
AcDbLine
 10
135.048
 20
90.45430000000001
 30
0.0
 11
136.0973999999999
 21
91.11819999999999
 31
0.0
  0
LINE
  5
3E4
330
1E
100
AcDbEntity
  8
default
  6
Continuous
 62
     1
100
AcDbLine
 10
91.11819999999999
 20
136.0973999999999
 30
0.0
 11
91.7992
 21
137.1477999999999
 31
0.0
  0
LINE
  5
3E5
330
1E
100
AcDbEntity
  8
default
  6
Continuous
 62
     1
100
AcDbLine
 10
136.0973999999999
 20
91.11819999999999
 30
0.0
 11
137.1477999999999
 21
91.7992
 31
0.0
  0
LINE
  5
3E6
330
1E
100
AcDbEntity
  8
default
  6
Continuous
 62
     1
100
AcDbLine
 10
91.7992
 20
137.1477999999999
 30
0.0
 11
92.497
 21
138.1987999999999
 31
0.0
  0
LINE
  5
3E7
330
1E
100
AcDbEntity
  8
default
  6
Continuous
 62
     1
100
AcDbLine
 10
137.1477999999999
 20
91.7992
 30
0.0
 11
138.1987999999999
 21
92.497
 31
0.0
  0
LINE
  5
3E8
330
1E
100
AcDbEntity
  8
default
  6
Continuous
 62
     1
100
AcDbLine
 10
92.497
 20
138.1987999999999
 30
0.0
 11
93.21150000000001
 21
139.2498999999999
 31
0.0
  0
LINE
  5
3E9
330
1E
100
AcDbEntity
  8
default
  6
Continuous
 62
     1
100
AcDbLine
 10
138.1987999999999
 20
92.497
 30
0.0
 11
139.2498999999999
 21
93.21150000000001
 31
0.0
  0
LINE
  5
3EA
330
1E
100
AcDbEntity
  8
default
  6
Continuous
 62
     1
100
AcDbLine
 10
93.21150000000001
 20
139.2498999999999
 30
0.0
 11
93.9423
 21
140.3005999999999
 31
0.0
  0
LINE
  5
3EB
330
1E
100
AcDbEntity
  8
default
  6
Continuous
 62
     1
100
AcDbLine
 10
139.2498999999999
 20
93.21150000000001
 30
0.0
 11
140.3005999999999
 21
93.9423
 31
0.0
  0
LINE
  5
3EC
330
1E
100
AcDbEntity
  8
default
  6
Continuous
 62
     1
100
AcDbLine
 10
93.9423
 20
140.3005999999999
 30
0.0
 11
94.6893
 21
141.3505
 31
0.0
  0
LINE
  5
3ED
330
1E
100
AcDbEntity
  8
default
  6
Continuous
 62
     1
100
AcDbLine
 10
140.3005999999999
 20
93.9423
 30
0.0
 11
141.3505
 21
94.6893
 31
0.0
  0
LINE
  5
3EE
330
1E
100
AcDbEntity
  8
default
  6
Continuous
 62
     1
100
AcDbLine
 10
94.6893
 20
141.3505
 30
0.0
 11
95.4521
 21
142.3991
 31
0.0
  0
LINE
  5
3EF
330
1E
100
AcDbEntity
  8
default
  6
Continuous
 62
     1
100
AcDbLine
 10
141.3505
 20
94.6893
 30
0.0
 11
142.3991
 21
95.4521
 31
0.0
  0
LINE
  5
3F0
330
1E
100
AcDbEntity
  8
default
  6
Continuous
 62
     1
100
AcDbLine
 10
95.4521
 20
142.3991
 30
0.0
 11
96.2305
 21
143.4458
 31
0.0
  0
LINE
  5
3F1
330
1E
100
AcDbEntity
  8
default
  6
Continuous
 62
     1
100
AcDbLine
 10
142.3991
 20
95.4521
 30
0.0
 11
143.4458
 21
96.2305
 31
0.0
  0
LINE
  5
3F2
330
1E
100
AcDbEntity
  8
default
  6
Continuous
 62
     1
100
AcDbLine
 10
96.2305
 20
143.4458
 30
0.0
 11
97.0242
 21
144.4901
 31
0.0
  0
LINE
  5
3F3
330
1E
100
AcDbEntity
  8
default
  6
Continuous
 62
     1
100
AcDbLine
 10
143.4458
 20
96.2305
 30
0.0
 11
144.4901
 21
97.0242
 31
0.0
  0
LINE
  5
3F4
330
1E
100
AcDbEntity
  8
default
  6
Continuous
 62
     1
100
AcDbLine
 10
97.0242
 20
144.4901
 30
0.0
 11
97.83280000000001
 21
145.5316
 31
0.0
  0
LINE
  5
3F5
330
1E
100
AcDbEntity
  8
default
  6
Continuous
 62
     1
100
AcDbLine
 10
144.4901
 20
97.0242
 30
0.0
 11
145.5316
 21
97.83280000000001
 31
0.0
  0
LINE
  5
3F6
330
1E
100
AcDbEntity
  8
default
  6
Continuous
 62
     1
100
AcDbLine
 10
97.83280000000001
 20
145.5316
 30
0.0
 11
98.6561
 21
146.5696
 31
0.0
  0
LINE
  5
3F7
330
1E
100
AcDbEntity
  8
default
  6
Continuous
 62
     1
100
AcDbLine
 10
145.5316
 20
97.83280000000001
 30
0.0
 11
146.5696
 21
98.6561
 31
0.0
  0
LINE
  5
3F8
330
1E
100
AcDbEntity
  8
default
  6
Continuous
 62
     1
100
AcDbLine
 10
98.6561
 20
146.5696
 30
0.0
 11
99.4935
 21
147.6038
 31
0.0
  0
LINE
  5
3F9
330
1E
100
AcDbEntity
  8
default
  6
Continuous
 62
     1
100
AcDbLine
 10
146.5696
 20
98.6561
 30
0.0
 11
147.6038
 21
99.4935
 31
0.0
  0
LINE
  5
3FA
330
1E
100
AcDbEntity
  8
default
  6
Continuous
 62
     1
100
AcDbLine
 10
99.4935
 20
147.6038
 30
0.0
 11
100.3449
 21
148.6336
 31
0.0
  0
LINE
  5
3FB
330
1E
100
AcDbEntity
  8
default
  6
Continuous
 62
     1
100
AcDbLine
 10
147.6038
 20
99.4935
 30
0.0
 11
148.6336
 21
100.3449
 31
0.0
  0
LINE
  5
3FC
330
1E
100
AcDbEntity
  8
default
  6
Continuous
 62
     1
100
AcDbLine
 10
100.3449
 20
148.6336
 30
0.0
 11
101.2097
 21
149.6584
 31
0.0
  0
LINE
  5
3FD
330
1E
100
AcDbEntity
  8
default
  6
Continuous
 62
     1
100
AcDbLine
 10
148.6336
 20
100.3449
 30
0.0
 11
149.6584
 21
101.2097
 31
0.0
  0
LINE
  5
3FE
330
1E
100
AcDbEntity
  8
default
  6
Continuous
 62
     1
100
AcDbLine
 10
101.2097
 20
149.6584
 30
0.0
 11
102.0875999999999
 21
150.6776999999999
 31
0.0
  0
LINE
  5
3FF
330
1E
100
AcDbEntity
  8
default
  6
Continuous
 62
     1
100
AcDbLine
 10
149.6584
 20
101.2097
 30
0.0
 11
150.6776999999999
 21
102.0875999999999
 31
0.0
  0
LINE
  5
400
330
1E
100
AcDbEntity
  8
default
  6
Continuous
 62
     1
100
AcDbLine
 10
102.0875999999999
 20
150.6776999999999
 30
0.0
 11
102.9781999999999
 21
151.6911
 31
0.0
  0
LINE
  5
401
330
1E
100
AcDbEntity
  8
default
  6
Continuous
 62
     1
100
AcDbLine
 10
150.6776999999999
 20
102.0875999999999
 30
0.0
 11
151.6911
 21
102.9781999999999
 31
0.0
  0
LINE
  5
402
330
1E
100
AcDbEntity
  8
default
  6
Continuous
 62
     1
100
AcDbLine
 10
102.9781999999999
 20
151.6911
 30
0.0
 11
103.881
 21
152.698
 31
0.0
  0
LINE
  5
403
330
1E
100
AcDbEntity
  8
default
  6
Continuous
 62
     1
100
AcDbLine
 10
151.6911
 20
102.9781999999999
 30
0.0
 11
152.698
 21
103.881
 31
0.0
  0
LINE
  5
404
330
1E
100
AcDbEntity
  8
default
  6
Continuous
 62
     1
100
AcDbLine
 10
103.881
 20
152.698
 30
0.0
 11
104.7957
 21
153.6979
 31
0.0
  0
LINE
  5
405
330
1E
100
AcDbEntity
  8
default
  6
Continuous
 62
     1
100
AcDbLine
 10
152.698
 20
103.881
 30
0.0
 11
153.6979
 21
104.7957
 31
0.0
  0
LINE
  5
406
330
1E
100
AcDbEntity
  8
default
  6
Continuous
 62
     1
100
AcDbLine
 10
104.7957
 20
153.6979
 30
0.0
 11
105.7217
 21
154.6903
 31
0.0
  0
LINE
  5
407
330
1E
100
AcDbEntity
  8
default
  6
Continuous
 62
     1
100
AcDbLine
 10
153.6979
 20
104.7957
 30
0.0
 11
154.6903
 21
105.7217
 31
0.0
  0
LINE
  5
408
330
1E
100
AcDbEntity
  8
default
  6
Continuous
 62
     1
100
AcDbLine
 10
105.7217
 20
154.6903
 30
0.0
 11
106.6586
 21
155.6745999999999
 31
0.0
  0
LINE
  5
409
330
1E
100
AcDbEntity
  8
default
  6
Continuous
 62
     1
100
AcDbLine
 10
154.6903
 20
105.7217
 30
0.0
 11
155.6745999999999
 21
106.6586
 31
0.0
  0
LINE
  5
40A
330
1E
100
AcDbEntity
  8
default
  6
Continuous
 62
     1
100
AcDbLine
 10
106.6586
 20
155.6745999999999
 30
0.0
 11
107.606
 21
156.6505
 31
0.0
  0
LINE
  5
40B
330
1E
100
AcDbEntity
  8
default
  6
Continuous
 62
     1
100
AcDbLine
 10
155.6745999999999
 20
106.6586
 30
0.0
 11
156.6505
 21
107.606
 31
0.0
  0
LINE
  5
40C
330
1E
100
AcDbEntity
  8
default
  6
Continuous
 62
     1
100
AcDbLine
 10
107.606
 20
156.6505
 30
0.0
 11
108.5633
 21
157.6173
 31
0.0
  0
LINE
  5
40D
330
1E
100
AcDbEntity
  8
default
  6
Continuous
 62
     1
100
AcDbLine
 10
156.6505
 20
107.606
 30
0.0
 11
157.6173
 21
108.5633
 31
0.0
  0
LINE
  5
40E
330
1E
100
AcDbEntity
  8
default
  6
Continuous
 62
     1
100
AcDbLine
 10
108.5633
 20
157.6173
 30
0.0
 11
157.6173
 21
108.5633
 31
0.0
  0
LINE
  5
40F
330
1E
100
AcDbEntity
  8
default
  6
Continuous
 62
     1
100
AcDbLine
 10
0.0
 20
80.0
 30
0.0
 11
-0.2074
 21
81.38249999999999
 31
0.0
  0
LINE
  5
410
330
1E
100
AcDbEntity
  8
default
  6
Continuous
 62
     1
100
AcDbLine
 10
0.0
 20
80.0
 30
0.0
 11
0.2074
 21
81.38249999999999
 31
0.0
  0
LINE
  5
411
330
1E
100
AcDbEntity
  8
default
  6
Continuous
 62
     1
100
AcDbLine
 10
-0.2074
 20
81.38249999999999
 30
0.0
 11
-0.4268
 21
82.75879999999999
 31
0.0
  0
LINE
  5
412
330
1E
100
AcDbEntity
  8
default
  6
Continuous
 62
     1
100
AcDbLine
 10
0.2074
 20
81.38249999999999
 30
0.0
 11
0.4268
 21
82.75879999999999
 31
0.0
  0
LINE
  5
413
330
1E
100
AcDbEntity
  8
default
  6
Continuous
 62
     1
100
AcDbLine
 10
-0.4268
 20
82.75879999999999
 30
0.0
 11
-0.6582
 21
84.12779999999999
 31
0.0
  0
LINE
  5
414
330
1E
100
AcDbEntity
  8
default
  6
Continuous
 62
     1
100
AcDbLine
 10
0.4268
 20
82.75879999999999
 30
0.0
 11
0.6582
 21
84.12779999999999
 31
0.0
  0
LINE
  5
415
330
1E
100
AcDbEntity
  8
default
  6
Continuous
 62
     1
100
AcDbLine
 10
-0.6582
 20
84.12779999999999
 30
0.0
 11
-0.9013999999999999
 21
85.4888
 31
0.0
  0
LINE
  5
416
330
1E
100
AcDbEntity
  8
default
  6
Continuous
 62
     1
100
AcDbLine
 10
0.6582
 20
84.12779999999999
 30
0.0
 11
0.9013999999999999
 21
85.4888
 31
0.0
  0
LINE
  5
417
330
1E
100
AcDbEntity
  8
default
  6
Continuous
 62
     1
100
AcDbLine
 10
-0.9013999999999999
 20
85.4888
 30
0.0
 11
-1.156199999999999
 21
86.8407
 31
0.0
  0
LINE
  5
418
330
1E
100
AcDbEntity
  8
default
  6
Continuous
 62
     1
100
AcDbLine
 10
0.9013999999999999
 20
85.4888
 30
0.0
 11
1.156199999999999
 21
86.8407
 31
0.0
  0
LINE
  5
419
330
1E
100
AcDbEntity
  8
default
  6
Continuous
 62
     1
100
AcDbLine
 10
-1.156199999999999
 20
86.8407
 30
0.0
 11
-1.4224
 21
88.1826
 31
0.0
  0
LINE
  5
41A
330
1E
100
AcDbEntity
  8
default
  6
Continuous
 62
     1
100
AcDbLine
 10
1.156199999999999
 20
86.8407
 30
0.0
 11
1.4224
 21
88.1826
 31
0.0
  0
LINE
  5
41B
330
1E
100
AcDbEntity
  8
default
  6
Continuous
 62
     1
100
AcDbLine
 10
-1.4224
 20
88.1826
 30
0.0
 11
-1.699799999999999
 21
89.5137
 31
0.0
  0
LINE
  5
41C
330
1E
100
AcDbEntity
  8
default
  6
Continuous
 62
     1
100
AcDbLine
 10
1.4224
 20
88.1826
 30
0.0
 11
1.699799999999999
 21
89.5137
 31
0.0
  0
LINE
  5
41D
330
1E
100
AcDbEntity
  8
default
  6
Continuous
 62
     1
100
AcDbLine
 10
-1.699799999999999
 20
89.5137
 30
0.0
 11
-1.988199999999999
 21
90.83299999999999
 31
0.0
  0
LINE
  5
41E
330
1E
100
AcDbEntity
  8
default
  6
Continuous
 62
     1
100
AcDbLine
 10
1.699799999999999
 20
89.5137
 30
0.0
 11
1.988199999999999
 21
90.83299999999999
 31
0.0
  0
LINE
  5
41F
330
1E
100
AcDbEntity
  8
default
  6
Continuous
 62
     1
100
AcDbLine
 10
-1.988199999999999
 20
90.83299999999999
 30
0.0
 11
-2.287399999999999
 21
92.1396
 31
0.0
  0
LINE
  5
420
330
1E
100
AcDbEntity
  8
default
  6
Continuous
 62
     1
100
AcDbLine
 10
1.988199999999999
 20
90.83299999999999
 30
0.0
 11
2.287399999999999
 21
92.1396
 31
0.0
  0
LINE
  5
421
330
1E
100
AcDbEntity
  8
default
  6
Continuous
 62
     1
100
AcDbLine
 10
-2.287399999999999
 20
92.1396
 30
0.0
 11
-2.5971
 21
93.4327
 31
0.0
  0
LINE
  5
422
330
1E
100
AcDbEntity
  8
default
  6
Continuous
 62
     1
100
AcDbLine
 10
2.287399999999999
 20
92.1396
 30
0.0
 11
2.5971
 21
93.4327
 31
0.0
  0
LINE
  5
423
330
1E
100
AcDbEntity
  8
default
  6
Continuous
 62
     1
100
AcDbLine
 10
-2.5971
 20
93.4327
 30
0.0
 11
-2.917199999999999
 21
94.71149999999999
 31
0.0
  0
LINE
  5
424
330
1E
100
AcDbEntity
  8
default
  6
Continuous
 62
     1
100
AcDbLine
 10
2.5971
 20
93.4327
 30
0.0
 11
2.917199999999999
 21
94.71149999999999
 31
0.0
  0
LINE
  5
425
330
1E
100
AcDbEntity
  8
default
  6
Continuous
 62
     1
100
AcDbLine
 10
-2.917199999999999
 20
94.71149999999999
 30
0.0
 11
-3.247399999999999
 21
95.97520000000001
 31
0.0
  0
LINE
  5
426
330
1E
100
AcDbEntity
  8
default
  6
Continuous
 62
     1
100
AcDbLine
 10
2.917199999999999
 20
94.71149999999999
 30
0.0
 11
3.247399999999999
 21
95.97520000000001
 31
0.0
  0
LINE
  5
427
330
1E
100
AcDbEntity
  8
default
  6
Continuous
 62
     1
100
AcDbLine
 10
-3.247399999999999
 20
95.97520000000001
 30
0.0
 11
-3.5874
 21
97.2229
 31
0.0
  0
LINE
  5
428
330
1E
100
AcDbEntity
  8
default
  6
Continuous
 62
     1
100
AcDbLine
 10
3.247399999999999
 20
95.97520000000001
 30
0.0
 11
3.5874
 21
97.2229
 31
0.0
  0
LINE
  5
429
330
1E
100
AcDbEntity
  8
default
  6
Continuous
 62
     1
100
AcDbLine
 10
-3.5874
 20
97.2229
 30
0.0
 11
-3.9371
 21
98.45399999999999
 31
0.0
  0
LINE
  5
42A
330
1E
100
AcDbEntity
  8
default
  6
Continuous
 62
     1
100
AcDbLine
 10
3.5874
 20
97.2229
 30
0.0
 11
3.9371
 21
98.45399999999999
 31
0.0
  0
LINE
  5
42B
330
1E
100
AcDbEntity
  8
default
  6
Continuous
 62
     1
100
AcDbLine
 10
-3.9371
 20
98.45399999999999
 30
0.0
 11
-4.2961
 21
99.66779999999999
 31
0.0
  0
LINE
  5
42C
330
1E
100
AcDbEntity
  8
default
  6
Continuous
 62
     1
100
AcDbLine
 10
3.9371
 20
98.45399999999999
 30
0.0
 11
4.2961
 21
99.66779999999999
 31
0.0
  0
LINE
  5
42D
330
1E
100
AcDbEntity
  8
default
  6
Continuous
 62
     1
100
AcDbLine
 10
-4.2961
 20
99.66779999999999
 30
0.0
 11
-4.6641
 21
100.8636
 31
0.0
  0
LINE
  5
42E
330
1E
100
AcDbEntity
  8
default
  6
Continuous
 62
     1
100
AcDbLine
 10
4.2961
 20
99.66779999999999
 30
0.0
 11
4.6641
 21
100.8636
 31
0.0
  0
LINE
  5
42F
330
1E
100
AcDbEntity
  8
default
  6
Continuous
 62
     1
100
AcDbLine
 10
-4.6641
 20
100.8636
 30
0.0
 11
-5.041
 21
102.0407999999999
 31
0.0
  0
LINE
  5
430
330
1E
100
AcDbEntity
  8
default
  6
Continuous
 62
     1
100
AcDbLine
 10
4.6641
 20
100.8636
 30
0.0
 11
5.041
 21
102.0407999999999
 31
0.0
  0
LINE
  5
431
330
1E
100
AcDbEntity
  8
default
  6
Continuous
 62
     1
100
AcDbLine
 10
-5.041
 20
102.0407999999999
 30
0.0
 11
-5.4264
 21
103.1989
 31
0.0
  0
LINE
  5
432
330
1E
100
AcDbEntity
  8
default
  6
Continuous
 62
     1
100
AcDbLine
 10
5.041
 20
102.0407999999999
 30
0.0
 11
5.4264
 21
103.1989
 31
0.0
  0
LINE
  5
433
330
1E
100
AcDbEntity
  8
default
  6
Continuous
 62
     1
100
AcDbLine
 10
-5.4264
 20
103.1989
 30
0.0
 11
-5.8201
 21
104.3373
 31
0.0
  0
LINE
  5
434
330
1E
100
AcDbEntity
  8
default
  6
Continuous
 62
     1
100
AcDbLine
 10
5.4264
 20
103.1989
 30
0.0
 11
5.8201
 21
104.3373
 31
0.0
  0
LINE
  5
435
330
1E
100
AcDbEntity
  8
default
  6
Continuous
 62
     1
100
AcDbLine
 10
-5.8201
 20
104.3373
 30
0.0
 11
-6.2217
 21
105.4556999999999
 31
0.0
  0
LINE
  5
436
330
1E
100
AcDbEntity
  8
default
  6
Continuous
 62
     1
100
AcDbLine
 10
5.8201
 20
104.3373
 30
0.0
 11
6.2217
 21
105.4556999999999
 31
0.0
  0
LINE
  5
437
330
1E
100
AcDbEntity
  8
default
  6
Continuous
 62
     1
100
AcDbLine
 10
-6.2217
 20
105.4556999999999
 30
0.0
 11
-6.630899999999999
 21
106.5537999999999
 31
0.0
  0
LINE
  5
438
330
1E
100
AcDbEntity
  8
default
  6
Continuous
 62
     1
100
AcDbLine
 10
6.2217
 20
105.4556999999999
 30
0.0
 11
6.630899999999999
 21
106.5537999999999
 31
0.0
  0
LINE
  5
439
330
1E
100
AcDbEntity
  8
default
  6
Continuous
 62
     1
100
AcDbLine
 10
-6.630899999999999
 20
106.5537999999999
 30
0.0
 11
-7.0475
 21
107.6311
 31
0.0
  0
LINE
  5
43A
330
1E
100
AcDbEntity
  8
default
  6
Continuous
 62
     1
100
AcDbLine
 10
6.630899999999999
 20
106.5537999999999
 30
0.0
 11
7.0475
 21
107.6311
 31
0.0
  0
LINE
  5
43B
330
1E
100
AcDbEntity
  8
default
  6
Continuous
 62
     1
100
AcDbLine
 10
-7.0475
 20
107.6311
 30
0.0
 11
-7.471099999999999
 21
108.6875
 31
0.0
  0
LINE
  5
43C
330
1E
100
AcDbEntity
  8
default
  6
Continuous
 62
     1
100
AcDbLine
 10
7.0475
 20
107.6311
 30
0.0
 11
7.471099999999999
 21
108.6875
 31
0.0
  0
LINE
  5
43D
330
1E
100
AcDbEntity
  8
default
  6
Continuous
 62
     1
100
AcDbLine
 10
-7.471099999999999
 20
108.6875
 30
0.0
 11
-7.9015
 21
109.7229999999999
 31
0.0
  0
LINE
  5
43E
330
1E
100
AcDbEntity
  8
default
  6
Continuous
 62
     1
100
AcDbLine
 10
7.471099999999999
 20
108.6875
 30
0.0
 11
7.9015
 21
109.7229999999999
 31
0.0
  0
LINE
  5
43F
330
1E
100
AcDbEntity
  8
default
  6
Continuous
 62
     1
100
AcDbLine
 10
-7.9015
 20
109.7229999999999
 30
0.0
 11
-8.3383
 21
110.7373999999999
 31
0.0
  0
LINE
  5
440
330
1E
100
AcDbEntity
  8
default
  6
Continuous
 62
     1
100
AcDbLine
 10
7.9015
 20
109.7229999999999
 30
0.0
 11
8.3383
 21
110.7373999999999
 31
0.0
  0
LINE
  5
441
330
1E
100
AcDbEntity
  8
default
  6
Continuous
 62
     1
100
AcDbLine
 10
-8.3383
 20
110.7373999999999
 30
0.0
 11
-8.7811
 21
111.7309
 31
0.0
  0
LINE
  5
442
330
1E
100
AcDbEntity
  8
default
  6
Continuous
 62
     1
100
AcDbLine
 10
8.3383
 20
110.7373999999999
 30
0.0
 11
8.7811
 21
111.7309
 31
0.0
  0
LINE
  5
443
330
1E
100
AcDbEntity
  8
default
  6
Continuous
 62
     1
100
AcDbLine
 10
-8.7811
 20
111.7309
 30
0.0
 11
-9.229799999999999
 21
112.7037
 31
0.0
  0
LINE
  5
444
330
1E
100
AcDbEntity
  8
default
  6
Continuous
 62
     1
100
AcDbLine
 10
8.7811
 20
111.7309
 30
0.0
 11
9.229799999999999
 21
112.7037
 31
0.0
  0
LINE
  5
445
330
1E
100
AcDbEntity
  8
default
  6
Continuous
 62
     1
100
AcDbLine
 10
-9.229799999999999
 20
112.7037
 30
0.0
 11
-9.683799999999999
 21
113.656
 31
0.0
  0
LINE
  5
446
330
1E
100
AcDbEntity
  8
default
  6
Continuous
 62
     1
100
AcDbLine
 10
9.229799999999999
 20
112.7037
 30
0.0
 11
9.683799999999999
 21
113.656
 31
0.0
  0
LINE
  5
447
330
1E
100
AcDbEntity
  8
default
  6
Continuous
 62
     1
100
AcDbLine
 10
-9.683799999999999
 20
113.656
 30
0.0
 11
-10.14289999999999
 21
114.5882
 31
0.0
  0
LINE
  5
448
330
1E
100
AcDbEntity
  8
default
  6
Continuous
 62
     1
100
AcDbLine
 10
9.683799999999999
 20
113.656
 30
0.0
 11
10.14289999999999
 21
114.5882
 31
0.0
  0
LINE
  5
449
330
1E
100
AcDbEntity
  8
default
  6
Continuous
 62
     1
100
AcDbLine
 10
-10.14289999999999
 20
114.5882
 30
0.0
 11
-10.6068
 21
115.501
 31
0.0
  0
LINE
  5
44A
330
1E
100
AcDbEntity
  8
default
  6
Continuous
 62
     1
100
AcDbLine
 10
10.14289999999999
 20
114.5882
 30
0.0
 11
10.6068
 21
115.501
 31
0.0
  0
LINE
  5
44B
330
1E
100
AcDbEntity
  8
default
  6
Continuous
 62
     1
100
AcDbLine
 10
-10.6068
 20
115.501
 30
0.0
 11
-11.0751
 21
116.3949
 31
0.0
  0
LINE
  5
44C
330
1E
100
AcDbEntity
  8
default
  6
Continuous
 62
     1
100
AcDbLine
 10
10.6068
 20
115.501
 30
0.0
 11
11.0751
 21
116.3949
 31
0.0
  0
LINE
  5
44D
330
1E
100
AcDbEntity
  8
default
  6
Continuous
 62
     1
100
AcDbLine
 10
-11.0751
 20
116.3949
 30
0.0
 11
-11.5474
 21
117.2707999999999
 31
0.0
  0
LINE
  5
44E
330
1E
100
AcDbEntity
  8
default
  6
Continuous
 62
     1
100
AcDbLine
 10
11.0751
 20
116.3949
 30
0.0
 11
11.5474
 21
117.2707999999999
 31
0.0
  0
LINE
  5
44F
330
1E
100
AcDbEntity
  8
default
  6
Continuous
 62
     1
100
AcDbLine
 10
-11.5474
 20
117.2707999999999
 30
0.0
 11
-12.0235
 21
118.1297
 31
0.0
  0
LINE
  5
450
330
1E
100
AcDbEntity
  8
default
  6
Continuous
 62
     1
100
AcDbLine
 10
11.5474
 20
117.2707999999999
 30
0.0
 11
12.0235
 21
118.1297
 31
0.0
  0
LINE
  5
451
330
1E
100
AcDbEntity
  8
default
  6
Continuous
 62
     1
100
AcDbLine
 10
-12.0235
 20
118.1297
 30
0.0
 11
-12.5029
 21
118.9726999999999
 31
0.0
  0
LINE
  5
452
330
1E
100
AcDbEntity
  8
default
  6
Continuous
 62
     1
100
AcDbLine
 10
12.0235
 20
118.1297
 30
0.0
 11
12.5029
 21
118.9726999999999
 31
0.0
  0
LINE
  5
453
330
1E
100
AcDbEntity
  8
default
  6
Continuous
 62
     1
100
AcDbLine
 10
-12.5029
 20
118.9726999999999
 30
0.0
 11
-12.9853
 21
119.8009
 31
0.0
  0
LINE
  5
454
330
1E
100
AcDbEntity
  8
default
  6
Continuous
 62
     1
100
AcDbLine
 10
12.5029
 20
118.9726999999999
 30
0.0
 11
12.9853
 21
119.8009
 31
0.0
  0
LINE
  5
455
330
1E
100
AcDbEntity
  8
default
  6
Continuous
 62
     1
100
AcDbLine
 10
-12.9853
 20
119.8009
 30
0.0
 11
-13.4703
 21
120.6158999999999
 31
0.0
  0
LINE
  5
456
330
1E
100
AcDbEntity
  8
default
  6
Continuous
 62
     1
100
AcDbLine
 10
12.9853
 20
119.8009
 30
0.0
 11
13.4703
 21
120.6158999999999
 31
0.0
  0
LINE
  5
457
330
1E
100
AcDbEntity
  8
default
  6
Continuous
 62
     1
100
AcDbLine
 10
-13.4703
 20
120.6158999999999
 30
0.0
 11
-13.9577
 21
121.419
 31
0.0
  0
LINE
  5
458
330
1E
100
AcDbEntity
  8
default
  6
Continuous
 62
     1
100
AcDbLine
 10
13.4703
 20
120.6158999999999
 30
0.0
 11
13.9577
 21
121.419
 31
0.0
  0
LINE
  5
459
330
1E
100
AcDbEntity
  8
default
  6
Continuous
 62
     1
100
AcDbLine
 10
-13.9577
 20
121.419
 30
0.0
 11
-14.4469
 21
122.2118999999999
 31
0.0
  0
LINE
  5
45A
330
1E
100
AcDbEntity
  8
default
  6
Continuous
 62
     1
100
AcDbLine
 10
13.9577
 20
121.419
 30
0.0
 11
14.4469
 21
122.2118999999999
 31
0.0
  0
LINE
  5
45B
330
1E
100
AcDbEntity
  8
default
  6
Continuous
 62
     1
100
AcDbLine
 10
-14.4469
 20
122.2118999999999
 30
0.0
 11
-14.9378
 21
122.9964999999999
 31
0.0
  0
LINE
  5
45C
330
1E
100
AcDbEntity
  8
default
  6
Continuous
 62
     1
100
AcDbLine
 10
14.4469
 20
122.2118999999999
 30
0.0
 11
14.9378
 21
122.9964999999999
 31
0.0
  0
LINE
  5
45D
330
1E
100
AcDbEntity
  8
default
  6
Continuous
 62
     1
100
AcDbLine
 10
-14.9378
 20
122.9964999999999
 30
0.0
 11
-15.4298
 21
123.7745
 31
0.0
  0
LINE
  5
45E
330
1E
100
AcDbEntity
  8
default
  6
Continuous
 62
     1
100
AcDbLine
 10
14.9378
 20
122.9964999999999
 30
0.0
 11
15.4298
 21
123.7745
 31
0.0
  0
LINE
  5
45F
330
1E
100
AcDbEntity
  8
default
  6
Continuous
 62
     1
100
AcDbLine
 10
-15.4298
 20
123.7745
 30
0.0
 11
-15.9226
 21
124.548
 31
0.0
  0
LINE
  5
460
330
1E
100
AcDbEntity
  8
default
  6
Continuous
 62
     1
100
AcDbLine
 10
15.4298
 20
123.7745
 30
0.0
 11
15.9226
 21
124.548
 31
0.0
  0
LINE
  5
461
330
1E
100
AcDbEntity
  8
default
  6
Continuous
 62
     1
100
AcDbLine
 10
-15.9226
 20
124.548
 30
0.0
 11
-16.4159
 21
125.3187999999999
 31
0.0
  0
LINE
  5
462
330
1E
100
AcDbEntity
  8
default
  6
Continuous
 62
     1
100
AcDbLine
 10
15.9226
 20
124.548
 30
0.0
 11
16.4159
 21
125.3187999999999
 31
0.0
  0
LINE
  5
463
330
1E
100
AcDbEntity
  8
default
  6
Continuous
 62
     1
100
AcDbLine
 10
-16.4159
 20
125.3187999999999
 30
0.0
 11
-16.9094
 21
126.089
 31
0.0
  0
LINE
  5
464
330
1E
100
AcDbEntity
  8
default
  6
Continuous
 62
     1
100
AcDbLine
 10
16.4159
 20
125.3187999999999
 30
0.0
 11
16.9094
 21
126.089
 31
0.0
  0
LINE
  5
465
330
1E
100
AcDbEntity
  8
default
  6
Continuous
 62
     1
100
AcDbLine
 10
-16.9094
 20
126.089
 30
0.0
 11
-17.4025
 21
126.8601
 31
0.0
  0
LINE
  5
466
330
1E
100
AcDbEntity
  8
default
  6
Continuous
 62
     1
100
AcDbLine
 10
16.9094
 20
126.089
 30
0.0
 11
17.4025
 21
126.8601
 31
0.0
  0
LINE
  5
467
330
1E
100
AcDbEntity
  8
default
  6
Continuous
 62
     1
100
AcDbLine
 10
-17.4025
 20
126.8601
 30
0.0
 11
-17.89509999999999
 21
127.6333
 31
0.0
  0
LINE
  5
468
330
1E
100
AcDbEntity
  8
default
  6
Continuous
 62
     1
100
AcDbLine
 10
17.4025
 20
126.8601
 30
0.0
 11
17.89509999999999
 21
127.6333
 31
0.0
  0
LINE
  5
469
330
1E
100
AcDbEntity
  8
default
  6
Continuous
 62
     1
100
AcDbLine
 10
-17.89509999999999
 20
127.6333
 30
0.0
 11
-18.3866
 21
128.4096999999999
 31
0.0
  0
LINE
  5
46A
330
1E
100
AcDbEntity
  8
default
  6
Continuous
 62
     1
100
AcDbLine
 10
17.89509999999999
 20
127.6333
 30
0.0
 11
18.3866
 21
128.4096999999999
 31
0.0
  0
LINE
  5
46B
330
1E
100
AcDbEntity
  8
default
  6
Continuous
 62
     1
100
AcDbLine
 10
-18.3866
 20
128.4096999999999
 30
0.0
 11
-18.87679999999999
 21
129.1905999999999
 31
0.0
  0
LINE
  5
46C
330
1E
100
AcDbEntity
  8
default
  6
Continuous
 62
     1
100
AcDbLine
 10
18.3866
 20
128.4096999999999
 30
0.0
 11
18.87679999999999
 21
129.1905999999999
 31
0.0
  0
LINE
  5
46D
330
1E
100
AcDbEntity
  8
default
  6
Continuous
 62
     1
100
AcDbLine
 10
-18.87679999999999
 20
129.1905999999999
 30
0.0
 11
-19.3653
 21
129.977
 31
0.0
  0
LINE
  5
46E
330
1E
100
AcDbEntity
  8
default
  6
Continuous
 62
     1
100
AcDbLine
 10
18.87679999999999
 20
129.1905999999999
 30
0.0
 11
19.3653
 21
129.977
 31
0.0
  0
LINE
  5
46F
330
1E
100
AcDbEntity
  8
default
  6
Continuous
 62
     1
100
AcDbLine
 10
-19.3653
 20
129.977
 30
0.0
 11
-19.8516
 21
130.77
 31
0.0
  0
LINE
  5
470
330
1E
100
AcDbEntity
  8
default
  6
Continuous
 62
     1
100
AcDbLine
 10
19.3653
 20
129.977
 30
0.0
 11
19.8516
 21
130.77
 31
0.0
  0
LINE
  5
471
330
1E
100
AcDbEntity
  8
default
  6
Continuous
 62
     1
100
AcDbLine
 10
-19.8516
 20
130.77
 30
0.0
 11
-20.3356
 21
131.5706999999999
 31
0.0
  0
LINE
  5
472
330
1E
100
AcDbEntity
  8
default
  6
Continuous
 62
     1
100
AcDbLine
 10
19.8516
 20
130.77
 30
0.0
 11
20.3356
 21
131.5706999999999
 31
0.0
  0
LINE
  5
473
330
1E
100
AcDbEntity
  8
default
  6
Continuous
 62
     1
100
AcDbLine
 10
-20.3356
 20
131.5706999999999
 30
0.0
 11
-20.8167
 21
132.3801
 31
0.0
  0
LINE
  5
474
330
1E
100
AcDbEntity
  8
default
  6
Continuous
 62
     1
100
AcDbLine
 10
20.3356
 20
131.5706999999999
 30
0.0
 11
20.8167
 21
132.3801
 31
0.0
  0
LINE
  5
475
330
1E
100
AcDbEntity
  8
default
  6
Continuous
 62
     1
100
AcDbLine
 10
-20.8167
 20
132.3801
 30
0.0
 11
-21.29469999999999
 21
133.1990999999999
 31
0.0
  0
LINE
  5
476
330
1E
100
AcDbEntity
  8
default
  6
Continuous
 62
     1
100
AcDbLine
 10
20.8167
 20
132.3801
 30
0.0
 11
21.29469999999999
 21
133.1990999999999
 31
0.0
  0
LINE
  5
477
330
1E
100
AcDbEntity
  8
default
  6
Continuous
 62
     1
100
AcDbLine
 10
-21.29469999999999
 20
133.1990999999999
 30
0.0
 11
-21.7692
 21
134.0286
 31
0.0
  0
LINE
  5
478
330
1E
100
AcDbEntity
  8
default
  6
Continuous
 62
     1
100
AcDbLine
 10
21.29469999999999
 20
133.1990999999999
 30
0.0
 11
21.7692
 21
134.0286
 31
0.0
  0
LINE
  5
479
330
1E
100
AcDbEntity
  8
default
  6
Continuous
 62
     1
100
AcDbLine
 10
-21.7692
 20
134.0286
 30
0.0
 11
-22.2398
 21
134.8694
 31
0.0
  0
LINE
  5
47A
330
1E
100
AcDbEntity
  8
default
  6
Continuous
 62
     1
100
AcDbLine
 10
21.7692
 20
134.0286
 30
0.0
 11
22.2398
 21
134.8694
 31
0.0
  0
LINE
  5
47B
330
1E
100
AcDbEntity
  8
default
  6
Continuous
 62
     1
100
AcDbLine
 10
-22.2398
 20
134.8694
 30
0.0
 11
-22.7062
 21
135.7221999999999
 31
0.0
  0
LINE
  5
47C
330
1E
100
AcDbEntity
  8
default
  6
Continuous
 62
     1
100
AcDbLine
 10
22.2398
 20
134.8694
 30
0.0
 11
22.7062
 21
135.7221999999999
 31
0.0
  0
LINE
  5
47D
330
1E
100
AcDbEntity
  8
default
  6
Continuous
 62
     1
100
AcDbLine
 10
-22.7062
 20
135.7221999999999
 30
0.0
 11
-23.168
 21
136.5877
 31
0.0
  0
LINE
  5
47E
330
1E
100
AcDbEntity
  8
default
  6
Continuous
 62
     1
100
AcDbLine
 10
22.7062
 20
135.7221999999999
 30
0.0
 11
23.168
 21
136.5877
 31
0.0
  0
LINE
  5
47F
330
1E
100
AcDbEntity
  8
default
  6
Continuous
 62
     1
100
AcDbLine
 10
-23.168
 20
136.5877
 30
0.0
 11
-23.625
 21
137.4665999999999
 31
0.0
  0
LINE
  5
480
330
1E
100
AcDbEntity
  8
default
  6
Continuous
 62
     1
100
AcDbLine
 10
23.168
 20
136.5877
 30
0.0
 11
23.625
 21
137.4665999999999
 31
0.0
  0
LINE
  5
481
330
1E
100
AcDbEntity
  8
default
  6
Continuous
 62
     1
100
AcDbLine
 10
-23.625
 20
137.4665999999999
 30
0.0
 11
-24.07669999999999
 21
138.3592999999999
 31
0.0
  0
LINE
  5
482
330
1E
100
AcDbEntity
  8
default
  6
Continuous
 62
     1
100
AcDbLine
 10
23.625
 20
137.4665999999999
 30
0.0
 11
24.07669999999999
 21
138.3592999999999
 31
0.0
  0
LINE
  5
483
330
1E
100
AcDbEntity
  8
default
  6
Continuous
 62
     1
100
AcDbLine
 10
-24.07669999999999
 20
138.3592999999999
 30
0.0
 11
-24.5228
 21
139.2664
 31
0.0
  0
LINE
  5
484
330
1E
100
AcDbEntity
  8
default
  6
Continuous
 62
     1
100
AcDbLine
 10
24.07669999999999
 20
138.3592999999999
 30
0.0
 11
24.5228
 21
139.2664
 31
0.0
  0
LINE
  5
485
330
1E
100
AcDbEntity
  8
default
  6
Continuous
 62
     1
100
AcDbLine
 10
-24.5228
 20
139.2664
 30
0.0
 11
-24.9631
 21
140.1882999999999
 31
0.0
  0
LINE
  5
486
330
1E
100
AcDbEntity
  8
default
  6
Continuous
 62
     1
100
AcDbLine
 10
24.5228
 20
139.2664
 30
0.0
 11
24.9631
 21
140.1882999999999
 31
0.0
  0
LINE
  5
487
330
1E
100
AcDbEntity
  8
default
  6
Continuous
 62
     1
100
AcDbLine
 10
-24.9631
 20
140.1882999999999
 30
0.0
 11
-25.39709999999999
 21
141.1253
 31
0.0
  0
LINE
  5
488
330
1E
100
AcDbEntity
  8
default
  6
Continuous
 62
     1
100
AcDbLine
 10
24.9631
 20
140.1882999999999
 30
0.0
 11
25.39709999999999
 21
141.1253
 31
0.0
  0
LINE
  5
489
330
1E
100
AcDbEntity
  8
default
  6
Continuous
 62
     1
100
AcDbLine
 10
-25.39709999999999
 20
141.1253
 30
0.0
 11
-25.8246
 21
142.0778
 31
0.0
  0
LINE
  5
48A
330
1E
100
AcDbEntity
  8
default
  6
Continuous
 62
     1
100
AcDbLine
 10
25.39709999999999
 20
141.1253
 30
0.0
 11
25.8246
 21
142.0778
 31
0.0
  0
LINE
  5
48B
330
1E
100
AcDbEntity
  8
default
  6
Continuous
 62
     1
100
AcDbLine
 10
-25.8246
 20
142.0778
 30
0.0
 11
-26.2452
 21
143.0458999999999
 31
0.0
  0
LINE
  5
48C
330
1E
100
AcDbEntity
  8
default
  6
Continuous
 62
     1
100
AcDbLine
 10
25.8246
 20
142.0778
 30
0.0
 11
26.2452
 21
143.0458999999999
 31
0.0
  0
LINE
  5
48D
330
1E
100
AcDbEntity
  8
default
  6
Continuous
 62
     1
100
AcDbLine
 10
-26.2452
 20
143.0458999999999
 30
0.0
 11
-26.6586
 21
144.0298999999999
 31
0.0
  0
LINE
  5
48E
330
1E
100
AcDbEntity
  8
default
  6
Continuous
 62
     1
100
AcDbLine
 10
26.2452
 20
143.0458999999999
 30
0.0
 11
26.6586
 21
144.0298999999999
 31
0.0
  0
LINE
  5
48F
330
1E
100
AcDbEntity
  8
default
  6
Continuous
 62
     1
100
AcDbLine
 10
-26.6586
 20
144.0298999999999
 30
0.0
 11
-27.0645
 21
145.0297999999999
 31
0.0
  0
LINE
  5
490
330
1E
100
AcDbEntity
  8
default
  6
Continuous
 62
     1
100
AcDbLine
 10
26.6586
 20
144.0298999999999
 30
0.0
 11
27.0645
 21
145.0297999999999
 31
0.0
  0
LINE
  5
491
330
1E
100
AcDbEntity
  8
default
  6
Continuous
 62
     1
100
AcDbLine
 10
-27.0645
 20
145.0297999999999
 30
0.0
 11
-27.4627
 21
146.0458
 31
0.0
  0
LINE
  5
492
330
1E
100
AcDbEntity
  8
default
  6
Continuous
 62
     1
100
AcDbLine
 10
27.0645
 20
145.0297999999999
 30
0.0
 11
27.4627
 21
146.0458
 31
0.0
  0
LINE
  5
493
330
1E
100
AcDbEntity
  8
default
  6
Continuous
 62
     1
100
AcDbLine
 10
-27.4627
 20
146.0458
 30
0.0
 11
-27.8528
 21
147.0777999999999
 31
0.0
  0
LINE
  5
494
330
1E
100
AcDbEntity
  8
default
  6
Continuous
 62
     1
100
AcDbLine
 10
27.4627
 20
146.0458
 30
0.0
 11
27.8528
 21
147.0777999999999
 31
0.0
  0
LINE
  5
495
330
1E
100
AcDbEntity
  8
default
  6
Continuous
 62
     1
100
AcDbLine
 10
-27.8528
 20
147.0777999999999
 30
0.0
 11
-28.2345
 21
148.1259
 31
0.0
  0
LINE
  5
496
330
1E
100
AcDbEntity
  8
default
  6
Continuous
 62
     1
100
AcDbLine
 10
27.8528
 20
147.0777999999999
 30
0.0
 11
28.2345
 21
148.1259
 31
0.0
  0
LINE
  5
497
330
1E
100
AcDbEntity
  8
default
  6
Continuous
 62
     1
100
AcDbLine
 10
-28.2345
 20
148.1259
 30
0.0
 11
-28.6075
 21
149.19
 31
0.0
  0
LINE
  5
498
330
1E
100
AcDbEntity
  8
default
  6
Continuous
 62
     1
100
AcDbLine
 10
28.2345
 20
148.1259
 30
0.0
 11
28.6075
 21
149.19
 31
0.0
  0
LINE
  5
499
330
1E
100
AcDbEntity
  8
default
  6
Continuous
 62
     1
100
AcDbLine
 10
-28.6075
 20
149.19
 30
0.0
 11
-28.9717
 21
150.2698999999999
 31
0.0
  0
LINE
  5
49A
330
1E
100
AcDbEntity
  8
default
  6
Continuous
 62
     1
100
AcDbLine
 10
28.6075
 20
149.19
 30
0.0
 11
28.9717
 21
150.2698999999999
 31
0.0
  0
LINE
  5
49B
330
1E
100
AcDbEntity
  8
default
  6
Continuous
 62
     1
100
AcDbLine
 10
-28.9717
 20
150.2698999999999
 30
0.0
 11
-29.3266
 21
151.3654999999999
 31
0.0
  0
LINE
  5
49C
330
1E
100
AcDbEntity
  8
default
  6
Continuous
 62
     1
100
AcDbLine
 10
28.9717
 20
150.2698999999999
 30
0.0
 11
29.3266
 21
151.3654999999999
 31
0.0
  0
LINE
  5
49D
330
1E
100
AcDbEntity
  8
default
  6
Continuous
 62
     1
100
AcDbLine
 10
-29.3266
 20
151.3654999999999
 30
0.0
 11
-29.6721
 21
152.4766999999999
 31
0.0
  0
LINE
  5
49E
330
1E
100
AcDbEntity
  8
default
  6
Continuous
 62
     1
100
AcDbLine
 10
29.3266
 20
151.3654999999999
 30
0.0
 11
29.6721
 21
152.4766999999999
 31
0.0
  0
LINE
  5
49F
330
1E
100
AcDbEntity
  8
default
  6
Continuous
 62
     1
100
AcDbLine
 10
-29.6721
 20
152.4766999999999
 30
0.0
 11
-30.0079
 21
153.6031
 31
0.0
  0
LINE
  5
4A0
330
1E
100
AcDbEntity
  8
default
  6
Continuous
 62
     1
100
AcDbLine
 10
29.6721
 20
152.4766999999999
 30
0.0
 11
30.0079
 21
153.6031
 31
0.0
  0
LINE
  5
4A1
330
1E
100
AcDbEntity
  8
default
  6
Continuous
 62
     1
100
AcDbLine
 10
-30.0079
 20
153.6031
 30
0.0
 11
-30.3337
 21
154.7445999999999
 31
0.0
  0
LINE
  5
4A2
330
1E
100
AcDbEntity
  8
default
  6
Continuous
 62
     1
100
AcDbLine
 10
30.0079
 20
153.6031
 30
0.0
 11
30.3337
 21
154.7445999999999
 31
0.0
  0
LINE
  5
4A3
330
1E
100
AcDbEntity
  8
default
  6
Continuous
 62
     1
100
AcDbLine
 10
-30.3337
 20
154.7445999999999
 30
0.0
 11
-30.6493
 21
155.9008
 31
0.0
  0
LINE
  5
4A4
330
1E
100
AcDbEntity
  8
default
  6
Continuous
 62
     1
100
AcDbLine
 10
30.3337
 20
154.7445999999999
 30
0.0
 11
30.6493
 21
155.9008
 31
0.0
  0
LINE
  5
4A5
330
1E
100
AcDbEntity
  8
default
  6
Continuous
 62
     1
100
AcDbLine
 10
-30.6493
 20
155.9008
 30
0.0
 11
-30.95439999999999
 21
157.0713
 31
0.0
  0
LINE
  5
4A6
330
1E
100
AcDbEntity
  8
default
  6
Continuous
 62
     1
100
AcDbLine
 10
30.6493
 20
155.9008
 30
0.0
 11
30.95439999999999
 21
157.0713
 31
0.0
  0
LINE
  5
4A7
330
1E
100
AcDbEntity
  8
default
  6
Continuous
 62
     1
100
AcDbLine
 10
-30.95439999999999
 20
157.0713
 30
0.0
 11
-31.2489
 21
158.2559
 31
0.0
  0
LINE
  5
4A8
330
1E
100
AcDbEntity
  8
default
  6
Continuous
 62
     1
100
AcDbLine
 10
30.95439999999999
 20
157.0713
 30
0.0
 11
31.2489
 21
158.2559
 31
0.0
  0
LINE
  5
4A9
330
1E
100
AcDbEntity
  8
default
  6
Continuous
 62
     1
100
AcDbLine
 10
-31.2489
 20
158.2559
 30
0.0
 11
-31.53249999999999
 21
159.4541999999999
 31
0.0
  0
LINE
  5
4AA
330
1E
100
AcDbEntity
  8
default
  6
Continuous
 62
     1
100
AcDbLine
 10
31.2489
 20
158.2559
 30
0.0
 11
31.53249999999999
 21
159.4541999999999
 31
0.0
  0
LINE
  5
4AB
330
1E
100
AcDbEntity
  8
default
  6
Continuous
 62
     1
100
AcDbLine
 10
-31.53249999999999
 20
159.4541999999999
 30
0.0
 11
-31.805
 21
160.6657
 31
0.0
  0
LINE
  5
4AC
330
1E
100
AcDbEntity
  8
default
  6
Continuous
 62
     1
100
AcDbLine
 10
31.53249999999999
 20
159.4541999999999
 30
0.0
 11
31.805
 21
160.6657
 31
0.0
  0
LINE
  5
4AD
330
1E
100
AcDbEntity
  8
default
  6
Continuous
 62
     1
100
AcDbLine
 10
-31.805
 20
160.6657
 30
0.0
 11
-32.0663
 21
161.8899
 31
0.0
  0
LINE
  5
4AE
330
1E
100
AcDbEntity
  8
default
  6
Continuous
 62
     1
100
AcDbLine
 10
31.805
 20
160.6657
 30
0.0
 11
32.0663
 21
161.8899
 31
0.0
  0
LINE
  5
4AF
330
1E
100
AcDbEntity
  8
default
  6
Continuous
 62
     1
100
AcDbLine
 10
-32.0663
 20
161.8899
 30
0.0
 11
-32.316
 21
163.1264999999999
 31
0.0
  0
LINE
  5
4B0
330
1E
100
AcDbEntity
  8
default
  6
Continuous
 62
     1
100
AcDbLine
 10
32.0663
 20
161.8899
 30
0.0
 11
32.316
 21
163.1264999999999
 31
0.0
  0
LINE
  5
4B1
330
1E
100
AcDbEntity
  8
default
  6
Continuous
 62
     1
100
AcDbLine
 10
-32.316
 20
163.1264999999999
 30
0.0
 11
-32.55409999999999
 21
164.375
 31
0.0
  0
LINE
  5
4B2
330
1E
100
AcDbEntity
  8
default
  6
Continuous
 62
     1
100
AcDbLine
 10
32.316
 20
163.1264999999999
 30
0.0
 11
32.55409999999999
 21
164.375
 31
0.0
  0
LINE
  5
4B3
330
1E
100
AcDbEntity
  8
default
  6
Continuous
 62
     1
100
AcDbLine
 10
-32.55409999999999
 20
164.375
 30
0.0
 11
-32.78029999999999
 21
165.6348
 31
0.0
  0
LINE
  5
4B4
330
1E
100
AcDbEntity
  8
default
  6
Continuous
 62
     1
100
AcDbLine
 10
32.55409999999999
 20
164.375
 30
0.0
 11
32.78029999999999
 21
165.6348
 31
0.0
  0
LINE
  5
4B5
330
1E
100
AcDbEntity
  8
default
  6
Continuous
 62
     1
100
AcDbLine
 10
-32.78029999999999
 20
165.6348
 30
0.0
 11
-32.9945
 21
166.9053
 31
0.0
  0
LINE
  5
4B6
330
1E
100
AcDbEntity
  8
default
  6
Continuous
 62
     1
100
AcDbLine
 10
32.78029999999999
 20
165.6348
 30
0.0
 11
32.9945
 21
166.9053
 31
0.0
  0
LINE
  5
4B7
330
1E
100
AcDbEntity
  8
default
  6
Continuous
 62
     1
100
AcDbLine
 10
-32.9945
 20
166.9053
 30
0.0
 11
-33.1965
 21
168.1862
 31
0.0
  0
LINE
  5
4B8
330
1E
100
AcDbEntity
  8
default
  6
Continuous
 62
     1
100
AcDbLine
 10
32.9945
 20
166.9053
 30
0.0
 11
33.1965
 21
168.1862
 31
0.0
  0
LINE
  5
4B9
330
1E
100
AcDbEntity
  8
default
  6
Continuous
 62
     1
100
AcDbLine
 10
-33.1965
 20
168.1862
 30
0.0
 11
-33.3862
 21
169.4766999999999
 31
0.0
  0
LINE
  5
4BA
330
1E
100
AcDbEntity
  8
default
  6
Continuous
 62
     1
100
AcDbLine
 10
33.1965
 20
168.1862
 30
0.0
 11
33.3862
 21
169.4766999999999
 31
0.0
  0
LINE
  5
4BB
330
1E
100
AcDbEntity
  8
default
  6
Continuous
 62
     1
100
AcDbLine
 10
-33.3862
 20
169.4766999999999
 30
0.0
 11
-33.56349999999999
 21
170.7764
 31
0.0
  0
LINE
  5
4BC
330
1E
100
AcDbEntity
  8
default
  6
Continuous
 62
     1
100
AcDbLine
 10
33.3862
 20
169.4766999999999
 30
0.0
 11
33.56349999999999
 21
170.7764
 31
0.0
  0
LINE
  5
4BD
330
1E
100
AcDbEntity
  8
default
  6
Continuous
 62
     1
100
AcDbLine
 10
-33.56349999999999
 20
170.7764
 30
0.0
 11
-33.72809999999999
 21
172.0845999999999
 31
0.0
  0
LINE
  5
4BE
330
1E
100
AcDbEntity
  8
default
  6
Continuous
 62
     1
100
AcDbLine
 10
33.56349999999999
 20
170.7764
 30
0.0
 11
33.72809999999999
 21
172.0845999999999
 31
0.0
  0
LINE
  5
4BF
330
1E
100
AcDbEntity
  8
default
  6
Continuous
 62
     1
100
AcDbLine
 10
-33.72809999999999
 20
172.0845999999999
 30
0.0
 11
-33.88
 21
173.4008
 31
0.0
  0
LINE
  5
4C0
330
1E
100
AcDbEntity
  8
default
  6
Continuous
 62
     1
100
AcDbLine
 10
33.72809999999999
 20
172.0845999999999
 30
0.0
 11
33.88
 21
173.4008
 31
0.0
  0
LINE
  5
4C1
330
1E
100
AcDbEntity
  8
default
  6
Continuous
 62
     1
100
AcDbLine
 10
-33.88
 20
173.4008
 30
0.0
 11
-34.0191
 21
174.7241999999999
 31
0.0
  0
LINE
  5
4C2
330
1E
100
AcDbEntity
  8
default
  6
Continuous
 62
     1
100
AcDbLine
 10
33.88
 20
173.4008
 30
0.0
 11
34.0191
 21
174.7241999999999
 31
0.0
  0
LINE
  5
4C3
330
1E
100
AcDbEntity
  8
default
  6
Continuous
 62
     1
100
AcDbLine
 10
-34.0191
 20
174.7241999999999
 30
0.0
 11
-34.1453
 21
176.0543
 31
0.0
  0
LINE
  5
4C4
330
1E
100
AcDbEntity
  8
default
  6
Continuous
 62
     1
100
AcDbLine
 10
34.0191
 20
174.7241999999999
 30
0.0
 11
34.1453
 21
176.0543
 31
0.0
  0
LINE
  5
4C5
330
1E
100
AcDbEntity
  8
default
  6
Continuous
 62
     1
100
AcDbLine
 10
-34.1453
 20
176.0543
 30
0.0
 11
-34.2584
 21
177.3905
 31
0.0
  0
LINE
  5
4C6
330
1E
100
AcDbEntity
  8
default
  6
Continuous
 62
     1
100
AcDbLine
 10
34.1453
 20
176.0543
 30
0.0
 11
34.2584
 21
177.3905
 31
0.0
  0
LINE
  5
4C7
330
1E
100
AcDbEntity
  8
default
  6
Continuous
 62
     1
100
AcDbLine
 10
-34.2584
 20
177.3905
 30
0.0
 11
-34.3584
 21
178.7321
 31
0.0
  0
LINE
  5
4C8
330
1E
100
AcDbEntity
  8
default
  6
Continuous
 62
     1
100
AcDbLine
 10
34.2584
 20
177.3905
 30
0.0
 11
34.3584
 21
178.7321
 31
0.0
  0
LINE
  5
4C9
330
1E
100
AcDbEntity
  8
default
  6
Continuous
 62
     1
100
AcDbLine
 10
-34.3584
 20
178.7321
 30
0.0
 11
-34.4452
 21
180.0783999999999
 31
0.0
  0
LINE
  5
4CA
330
1E
100
AcDbEntity
  8
default
  6
Continuous
 62
     1
100
AcDbLine
 10
34.3584
 20
178.7321
 30
0.0
 11
34.4452
 21
180.0783999999999
 31
0.0
  0
LINE
  5
4CB
330
1E
100
AcDbEntity
  8
default
  6
Continuous
 62
     1
100
AcDbLine
 10
-34.4452
 20
180.0783999999999
 30
0.0
 11
-34.5188
 21
181.4287999999999
 31
0.0
  0
LINE
  5
4CC
330
1E
100
AcDbEntity
  8
default
  6
Continuous
 62
     1
100
AcDbLine
 10
34.4452
 20
180.0783999999999
 30
0.0
 11
34.5188
 21
181.4287999999999
 31
0.0
  0
LINE
  5
4CD
330
1E
100
AcDbEntity
  8
default
  6
Continuous
 62
     1
100
AcDbLine
 10
-34.5188
 20
181.4287999999999
 30
0.0
 11
-34.5791
 21
182.7824999999999
 31
0.0
  0
LINE
  5
4CE
330
1E
100
AcDbEntity
  8
default
  6
Continuous
 62
     1
100
AcDbLine
 10
34.5188
 20
181.4287999999999
 30
0.0
 11
34.5791
 21
182.7824999999999
 31
0.0
  0
LINE
  5
4CF
330
1E
100
AcDbEntity
  8
default
  6
Continuous
 62
     1
100
AcDbLine
 10
-34.5791
 20
182.7824999999999
 30
0.0
 11
-34.626
 21
184.1391
 31
0.0
  0
LINE
  5
4D0
330
1E
100
AcDbEntity
  8
default
  6
Continuous
 62
     1
100
AcDbLine
 10
34.5791
 20
182.7824999999999
 30
0.0
 11
34.626
 21
184.1391
 31
0.0
  0
LINE
  5
4D1
330
1E
100
AcDbEntity
  8
default
  6
Continuous
 62
     1
100
AcDbLine
 10
-34.626
 20
184.1391
 30
0.0
 11
-34.65959999999999
 21
185.4976
 31
0.0
  0
LINE
  5
4D2
330
1E
100
AcDbEntity
  8
default
  6
Continuous
 62
     1
100
AcDbLine
 10
34.626
 20
184.1391
 30
0.0
 11
34.65959999999999
 21
185.4976
 31
0.0
  0
LINE
  5
4D3
330
1E
100
AcDbEntity
  8
default
  6
Continuous
 62
     1
100
AcDbLine
 10
-34.65959999999999
 20
185.4976
 30
0.0
 11
-34.67969999999999
 21
186.8574999999999
 31
0.0
  0
LINE
  5
4D4
330
1E
100
AcDbEntity
  8
default
  6
Continuous
 62
     1
100
AcDbLine
 10
34.65959999999999
 20
185.4976
 30
0.0
 11
34.67969999999999
 21
186.8574999999999
 31
0.0
  0
LINE
  5
4D5
330
1E
100
AcDbEntity
  8
default
  6
Continuous
 62
     1
100
AcDbLine
 10
-34.67969999999999
 20
186.8574999999999
 30
0.0
 11
-34.6864
 21
188.2182
 31
0.0
  0
LINE
  5
4D6
330
1E
100
AcDbEntity
  8
default
  6
Continuous
 62
     1
100
AcDbLine
 10
34.67969999999999
 20
186.8574999999999
 30
0.0
 11
34.6864
 21
188.2182
 31
0.0
  0
LINE
  5
4D7
330
1E
100
AcDbEntity
  8
default
  6
Continuous
 62
     1
100
AcDbLine
 10
-34.6864
 20
188.2182
 30
0.0
 11
34.6864
 21
188.2182
 31
0.0
  0
LINE
  5
4D8
330
1E
100
AcDbEntity
  8
default
  6
Continuous
 62
     1
100
AcDbLine
 10
-56.5685
 20
56.5685
 30
0.0
 11
-57.6927
 21
57.3995
 31
0.0
  0
LINE
  5
4D9
330
1E
100
AcDbEntity
  8
default
  6
Continuous
 62
     1
100
AcDbLine
 10
-56.5685
 20
56.5685
 30
0.0
 11
-57.3995
 21
57.6927
 31
0.0
  0
LINE
  5
4DA
330
1E
100
AcDbEntity
  8
default
  6
Continuous
 62
     1
100
AcDbLine
 10
-57.6927
 20
57.3995
 30
0.0
 11
-58.8211
 21
58.2175
 31
0.0
  0
LINE
  5
4DB
330
1E
100
AcDbEntity
  8
default
  6
Continuous
 62
     1
100
AcDbLine
 10
-57.3995
 20
57.6927
 30
0.0
 11
-58.2175
 21
58.8211
 31
0.0
  0
LINE
  5
4DC
330
1E
100
AcDbEntity
  8
default
  6
Continuous
 62
     1
100
AcDbLine
 10
-58.8211
 20
58.2175
 30
0.0
 11
-59.95280000000001
 21
59.0219
 31
0.0
  0
LINE
  5
4DD
330
1E
100
AcDbEntity
  8
default
  6
Continuous
 62
     1
100
AcDbLine
 10
-58.2175
 20
58.8211
 30
0.0
 11
-59.0219
 21
59.95280000000001
 31
0.0
  0
LINE
  5
4DE
330
1E
100
AcDbEntity
  8
default
  6
Continuous
 62
     1
100
AcDbLine
 10
-59.95280000000001
 20
59.0219
 30
0.0
 11
-61.0871
 21
59.8123
 31
0.0
  0
LINE
  5
4DF
330
1E
100
AcDbEntity
  8
default
  6
Continuous
 62
     1
100
AcDbLine
 10
-59.0219
 20
59.95280000000001
 30
0.0
 11
-59.8123
 21
61.0871
 31
0.0
  0
LINE
  5
4E0
330
1E
100
AcDbEntity
  8
default
  6
Continuous
 62
     1
100
AcDbLine
 10
-61.0871
 20
59.8123
 30
0.0
 11
-62.22319999999999
 21
60.5881
 31
0.0
  0
LINE
  5
4E1
330
1E
100
AcDbEntity
  8
default
  6
Continuous
 62
     1
100
AcDbLine
 10
-59.8123
 20
61.0871
 30
0.0
 11
-60.5881
 21
62.22319999999999
 31
0.0
  0
LINE
  5
4E2
330
1E
100
AcDbEntity
  8
default
  6
Continuous
 62
     1
100
AcDbLine
 10
-62.22319999999999
 20
60.5881
 30
0.0
 11
-63.3603
 21
61.34879999999999
 31
0.0
  0
LINE
  5
4E3
330
1E
100
AcDbEntity
  8
default
  6
Continuous
 62
     1
100
AcDbLine
 10
-60.5881
 20
62.22319999999999
 30
0.0
 11
-61.34879999999999
 21
63.3603
 31
0.0
  0
LINE
  5
4E4
330
1E
100
AcDbEntity
  8
default
  6
Continuous
 62
     1
100
AcDbLine
 10
-63.3603
 20
61.34879999999999
 30
0.0
 11
-64.4977
 21
62.0938
 31
0.0
  0
LINE
  5
4E5
330
1E
100
AcDbEntity
  8
default
  6
Continuous
 62
     1
100
AcDbLine
 10
-61.34879999999999
 20
63.3603
 30
0.0
 11
-62.0938
 21
64.4977
 31
0.0
  0
LINE
  5
4E6
330
1E
100
AcDbEntity
  8
default
  6
Continuous
 62
     1
100
AcDbLine
 10
-64.4977
 20
62.0938
 30
0.0
 11
-65.6345
 21
62.8228
 31
0.0
  0
LINE
  5
4E7
330
1E
100
AcDbEntity
  8
default
  6
Continuous
 62
     1
100
AcDbLine
 10
-62.0938
 20
64.4977
 30
0.0
 11
-62.8228
 21
65.6345
 31
0.0
  0
LINE
  5
4E8
330
1E
100
AcDbEntity
  8
default
  6
Continuous
 62
     1
100
AcDbLine
 10
-65.6345
 20
62.8228
 30
0.0
 11
-66.76999999999999
 21
63.53509999999999
 31
0.0
  0
LINE
  5
4E9
330
1E
100
AcDbEntity
  8
default
  6
Continuous
 62
     1
100
AcDbLine
 10
-62.8228
 20
65.6345
 30
0.0
 11
-63.53509999999999
 21
66.76999999999999
 31
0.0
  0
LINE
  5
4EA
330
1E
100
AcDbEntity
  8
default
  6
Continuous
 62
     1
100
AcDbLine
 10
-66.76999999999999
 20
63.53509999999999
 30
0.0
 11
-67.9034
 21
64.2305
 31
0.0
  0
LINE
  5
4EB
330
1E
100
AcDbEntity
  8
default
  6
Continuous
 62
     1
100
AcDbLine
 10
-63.53509999999999
 20
66.76999999999999
 30
0.0
 11
-64.2305
 21
67.9034
 31
0.0
  0
LINE
  5
4EC
330
1E
100
AcDbEntity
  8
default
  6
Continuous
 62
     1
100
AcDbLine
 10
-67.9034
 20
64.2305
 30
0.0
 11
-69.0339
 21
64.9084
 31
0.0
  0
LINE
  5
4ED
330
1E
100
AcDbEntity
  8
default
  6
Continuous
 62
     1
100
AcDbLine
 10
-64.2305
 20
67.9034
 30
0.0
 11
-64.9084
 21
69.0339
 31
0.0
  0
LINE
  5
4EE
330
1E
100
AcDbEntity
  8
default
  6
Continuous
 62
     1
100
AcDbLine
 10
-69.0339
 20
64.9084
 30
0.0
 11
-70.161
 21
65.5684
 31
0.0
  0
LINE
  5
4EF
330
1E
100
AcDbEntity
  8
default
  6
Continuous
 62
     1
100
AcDbLine
 10
-64.9084
 20
69.0339
 30
0.0
 11
-65.5684
 21
70.161
 31
0.0
  0
LINE
  5
4F0
330
1E
100
AcDbEntity
  8
default
  6
Continuous
 62
     1
100
AcDbLine
 10
-70.161
 20
65.5684
 30
0.0
 11
-71.2837
 21
66.21030000000001
 31
0.0
  0
LINE
  5
4F1
330
1E
100
AcDbEntity
  8
default
  6
Continuous
 62
     1
100
AcDbLine
 10
-65.5684
 20
70.161
 30
0.0
 11
-66.21030000000001
 21
71.2837
 31
0.0
  0
LINE
  5
4F2
330
1E
100
AcDbEntity
  8
default
  6
Continuous
 62
     1
100
AcDbLine
 10
-71.2837
 20
66.21030000000001
 30
0.0
 11
-72.4014
 21
66.8336
 31
0.0
  0
LINE
  5
4F3
330
1E
100
AcDbEntity
  8
default
  6
Continuous
 62
     1
100
AcDbLine
 10
-66.21030000000001
 20
71.2837
 30
0.0
 11
-66.8336
 21
72.4014
 31
0.0
  0
LINE
  5
4F4
330
1E
100
AcDbEntity
  8
default
  6
Continuous
 62
     1
100
AcDbLine
 10
-72.4014
 20
66.8336
 30
0.0
 11
-73.51359999999999
 21
67.438
 31
0.0
  0
LINE
  5
4F5
330
1E
100
AcDbEntity
  8
default
  6
Continuous
 62
     1
100
AcDbLine
 10
-66.8336
 20
72.4014
 30
0.0
 11
-67.438
 21
73.51359999999999
 31
0.0
  0
LINE
  5
4F6
330
1E
100
AcDbEntity
  8
default
  6
Continuous
 62
     1
100
AcDbLine
 10
-73.51359999999999
 20
67.438
 30
0.0
 11
-74.6194
 21
68.02330000000001
 31
0.0
  0
LINE
  5
4F7
330
1E
100
AcDbEntity
  8
default
  6
Continuous
 62
     1
100
AcDbLine
 10
-67.438
 20
73.51359999999999
 30
0.0
 11
-68.02330000000001
 21
74.6194
 31
0.0
  0
LINE
  5
4F8
330
1E
100
AcDbEntity
  8
default
  6
Continuous
 62
     1
100
AcDbLine
 10
-74.6194
 20
68.02330000000001
 30
0.0
 11
-75.7183
 21
68.58920000000001
 31
0.0
  0
LINE
  5
4F9
330
1E
100
AcDbEntity
  8
default
  6
Continuous
 62
     1
100
AcDbLine
 10
-68.02330000000001
 20
74.6194
 30
0.0
 11
-68.58920000000001
 21
75.7183
 31
0.0
  0
LINE
  5
4FA
330
1E
100
AcDbEntity
  8
default
  6
Continuous
 62
     1
100
AcDbLine
 10
-75.7183
 20
68.58920000000001
 30
0.0
 11
-76.80970000000001
 21
69.1356
 31
0.0
  0
LINE
  5
4FB
330
1E
100
AcDbEntity
  8
default
  6
Continuous
 62
     1
100
AcDbLine
 10
-68.58920000000001
 20
75.7183
 30
0.0
 11
-69.1356
 21
76.80970000000001
 31
0.0
  0
LINE
  5
4FC
330
1E
100
AcDbEntity
  8
default
  6
Continuous
 62
     1
100
AcDbLine
 10
-76.80970000000001
 20
69.1356
 30
0.0
 11
-77.893
 21
69.66219999999999
 31
0.0
  0
LINE
  5
4FD
330
1E
100
AcDbEntity
  8
default
  6
Continuous
 62
     1
100
AcDbLine
 10
-69.1356
 20
76.80970000000001
 30
0.0
 11
-69.66219999999999
 21
77.893
 31
0.0
  0
LINE
  5
4FE
330
1E
100
AcDbEntity
  8
default
  6
Continuous
 62
     1
100
AcDbLine
 10
-77.893
 20
69.66219999999999
 30
0.0
 11
-78.96779999999999
 21
70.1691
 31
0.0
  0
LINE
  5
4FF
330
1E
100
AcDbEntity
  8
default
  6
Continuous
 62
     1
100
AcDbLine
 10
-69.66219999999999
 20
77.893
 30
0.0
 11
-70.1691
 21
78.96779999999999
 31
0.0
  0
LINE
  5
500
330
1E
100
AcDbEntity
  8
default
  6
Continuous
 62
     1
100
AcDbLine
 10
-78.96779999999999
 20
70.1691
 30
0.0
 11
-80.0336
 21
70.65609999999999
 31
0.0
  0
LINE
  5
501
330
1E
100
AcDbEntity
  8
default
  6
Continuous
 62
     1
100
AcDbLine
 10
-70.1691
 20
78.96779999999999
 30
0.0
 11
-70.65609999999999
 21
80.0336
 31
0.0
  0
LINE
  5
502
330
1E
100
AcDbEntity
  8
default
  6
Continuous
 62
     1
100
AcDbLine
 10
-80.0336
 20
70.65609999999999
 30
0.0
 11
-81.08999999999999
 21
71.1233
 31
0.0
  0
LINE
  5
503
330
1E
100
AcDbEntity
  8
default
  6
Continuous
 62
     1
100
AcDbLine
 10
-70.65609999999999
 20
80.0336
 30
0.0
 11
-71.1233
 21
81.08999999999999
 31
0.0
  0
LINE
  5
504
330
1E
100
AcDbEntity
  8
default
  6
Continuous
 62
     1
100
AcDbLine
 10
-81.08999999999999
 20
71.1233
 30
0.0
 11
-82.1366
 21
71.5708
 31
0.0
  0
LINE
  5
505
330
1E
100
AcDbEntity
  8
default
  6
Continuous
 62
     1
100
AcDbLine
 10
-71.1233
 20
81.08999999999999
 30
0.0
 11
-71.5708
 21
82.1366
 31
0.0
  0
LINE
  5
506
330
1E
100
AcDbEntity
  8
default
  6
Continuous
 62
     1
100
AcDbLine
 10
-82.1366
 20
71.5708
 30
0.0
 11
-83.1731
 21
71.9987
 31
0.0
  0
LINE
  5
507
330
1E
100
AcDbEntity
  8
default
  6
Continuous
 62
     1
100
AcDbLine
 10
-71.5708
 20
82.1366
 30
0.0
 11
-71.9987
 21
83.1731
 31
0.0
  0
LINE
  5
508
330
1E
100
AcDbEntity
  8
default
  6
Continuous
 62
     1
100
AcDbLine
 10
-83.1731
 20
71.9987
 30
0.0
 11
-84.19920000000001
 21
72.40709999999999
 31
0.0
  0
LINE
  5
509
330
1E
100
AcDbEntity
  8
default
  6
Continuous
 62
     1
100
AcDbLine
 10
-71.9987
 20
83.1731
 30
0.0
 11
-72.40709999999999
 21
84.19920000000001
 31
0.0
  0
LINE
  5
50A
330
1E
100
AcDbEntity
  8
default
  6
Continuous
 62
     1
100
AcDbLine
 10
-84.19920000000001
 20
72.40709999999999
 30
0.0
 11
-85.2149
 21
72.7965
 31
0.0
  0
LINE
  5
50B
330
1E
100
AcDbEntity
  8
default
  6
Continuous
 62
     1
100
AcDbLine
 10
-72.40709999999999
 20
84.19920000000001
 30
0.0
 11
-72.7965
 21
85.2149
 31
0.0
  0
LINE
  5
50C
330
1E
100
AcDbEntity
  8
default
  6
Continuous
 62
     1
100
AcDbLine
 10
-85.2149
 20
72.7965
 30
0.0
 11
-86.2199
 21
73.1671
 31
0.0
  0
LINE
  5
50D
330
1E
100
AcDbEntity
  8
default
  6
Continuous
 62
     1
100
AcDbLine
 10
-72.7965
 20
85.2149
 30
0.0
 11
-73.1671
 21
86.2199
 31
0.0
  0
LINE
  5
50E
330
1E
100
AcDbEntity
  8
default
  6
Continuous
 62
     1
100
AcDbLine
 10
-86.2199
 20
73.1671
 30
0.0
 11
-87.21439999999999
 21
73.5194
 31
0.0
  0
LINE
  5
50F
330
1E
100
AcDbEntity
  8
default
  6
Continuous
 62
     1
100
AcDbLine
 10
-73.1671
 20
86.2199
 30
0.0
 11
-73.5194
 21
87.21439999999999
 31
0.0
  0
LINE
  5
510
330
1E
100
AcDbEntity
  8
default
  6
Continuous
 62
     1
100
AcDbLine
 10
-87.21439999999999
 20
73.5194
 30
0.0
 11
-88.19819999999999
 21
73.854
 31
0.0
  0
LINE
  5
511
330
1E
100
AcDbEntity
  8
default
  6
Continuous
 62
     1
100
AcDbLine
 10
-73.5194
 20
87.21439999999999
 30
0.0
 11
-73.854
 21
88.19819999999999
 31
0.0
  0
LINE
  5
512
330
1E
100
AcDbEntity
  8
default
  6
Continuous
 62
     1
100
AcDbLine
 10
-88.19819999999999
 20
73.854
 30
0.0
 11
-89.1717
 21
74.1714
 31
0.0
  0
LINE
  5
513
330
1E
100
AcDbEntity
  8
default
  6
Continuous
 62
     1
100
AcDbLine
 10
-73.854
 20
88.19819999999999
 30
0.0
 11
-74.1714
 21
89.1717
 31
0.0
  0
LINE
  5
514
330
1E
100
AcDbEntity
  8
default
  6
Continuous
 62
     1
100
AcDbLine
 10
-89.1717
 20
74.1714
 30
0.0
 11
-90.1349
 21
74.47239999999999
 31
0.0
  0
LINE
  5
515
330
1E
100
AcDbEntity
  8
default
  6
Continuous
 62
     1
100
AcDbLine
 10
-74.1714
 20
89.1717
 30
0.0
 11
-74.47239999999999
 21
90.1349
 31
0.0
  0
LINE
  5
516
330
1E
100
AcDbEntity
  8
default
  6
Continuous
 62
     1
100
AcDbLine
 10
-90.1349
 20
74.47239999999999
 30
0.0
 11
-91.08830000000001
 21
74.7577
 31
0.0
  0
LINE
  5
517
330
1E
100
AcDbEntity
  8
default
  6
Continuous
 62
     1
100
AcDbLine
 10
-74.47239999999999
 20
90.1349
 30
0.0
 11
-74.7577
 21
91.08830000000001
 31
0.0
  0
LINE
  5
518
330
1E
100
AcDbEntity
  8
default
  6
Continuous
 62
     1
100
AcDbLine
 10
-91.08830000000001
 20
74.7577
 30
0.0
 11
-92.03219999999999
 21
75.02849999999999
 31
0.0
  0
LINE
  5
519
330
1E
100
AcDbEntity
  8
default
  6
Continuous
 62
     1
100
AcDbLine
 10
-74.7577
 20
91.08830000000001
 30
0.0
 11
-75.02849999999999
 21
92.03219999999999
 31
0.0
  0
LINE
  5
51A
330
1E
100
AcDbEntity
  8
default
  6
Continuous
 62
     1
100
AcDbLine
 10
-92.03219999999999
 20
75.02849999999999
 30
0.0
 11
-92.9673
 21
75.2855
 31
0.0
  0
LINE
  5
51B
330
1E
100
AcDbEntity
  8
default
  6
Continuous
 62
     1
100
AcDbLine
 10
-75.02849999999999
 20
92.03219999999999
 30
0.0
 11
-75.2855
 21
92.9673
 31
0.0
  0
LINE
  5
51C
330
1E
100
AcDbEntity
  8
default
  6
Continuous
 62
     1
100
AcDbLine
 10
-92.9673
 20
75.2855
 30
0.0
 11
-93.894
 21
75.5301
 31
0.0
  0
LINE
  5
51D
330
1E
100
AcDbEntity
  8
default
  6
Continuous
 62
     1
100
AcDbLine
 10
-75.2855
 20
92.9673
 30
0.0
 11
-75.5301
 21
93.894
 31
0.0
  0
LINE
  5
51E
330
1E
100
AcDbEntity
  8
default
  6
Continuous
 62
     1
100
AcDbLine
 10
-93.894
 20
75.5301
 30
0.0
 11
-94.81329999999999
 21
75.7633
 31
0.0
  0
LINE
  5
51F
330
1E
100
AcDbEntity
  8
default
  6
Continuous
 62
     1
100
AcDbLine
 10
-75.5301
 20
93.894
 30
0.0
 11
-75.7633
 21
94.81329999999999
 31
0.0
  0
LINE
  5
520
330
1E
100
AcDbEntity
  8
default
  6
Continuous
 62
     1
100
AcDbLine
 10
-94.81329999999999
 20
75.7633
 30
0.0
 11
-95.7258
 21
75.98659999999999
 31
0.0
  0
LINE
  5
521
330
1E
100
AcDbEntity
  8
default
  6
Continuous
 62
     1
100
AcDbLine
 10
-75.7633
 20
94.81329999999999
 30
0.0
 11
-75.98659999999999
 21
95.7258
 31
0.0
  0
LINE
  5
522
330
1E
100
AcDbEntity
  8
default
  6
Continuous
 62
     1
100
AcDbLine
 10
-95.7258
 20
75.98659999999999
 30
0.0
 11
-96.63240000000001
 21
76.20140000000001
 31
0.0
  0
LINE
  5
523
330
1E
100
AcDbEntity
  8
default
  6
Continuous
 62
     1
100
AcDbLine
 10
-75.98659999999999
 20
95.7258
 30
0.0
 11
-76.20140000000001
 21
96.63240000000001
 31
0.0
  0
LINE
  5
524
330
1E
100
AcDbEntity
  8
default
  6
Continuous
 62
     1
100
AcDbLine
 10
-96.63240000000001
 20
76.20140000000001
 30
0.0
 11
-97.53430000000001
 21
76.40909999999999
 31
0.0
  0
LINE
  5
525
330
1E
100
AcDbEntity
  8
default
  6
Continuous
 62
     1
100
AcDbLine
 10
-76.20140000000001
 20
96.63240000000001
 30
0.0
 11
-76.40909999999999
 21
97.53430000000001
 31
0.0
  0
LINE
  5
526
330
1E
100
AcDbEntity
  8
default
  6
Continuous
 62
     1
100
AcDbLine
 10
-97.53430000000001
 20
76.40909999999999
 30
0.0
 11
-98.4323
 21
76.61129999999999
 31
0.0
  0
LINE
  5
527
330
1E
100
AcDbEntity
  8
default
  6
Continuous
 62
     1
100
AcDbLine
 10
-76.40909999999999
 20
97.53430000000001
 30
0.0
 11
-76.61129999999999
 21
98.4323
 31
0.0
  0
LINE
  5
528
330
1E
100
AcDbEntity
  8
default
  6
Continuous
 62
     1
100
AcDbLine
 10
-98.4323
 20
76.61129999999999
 30
0.0
 11
-99.32769999999999
 21
76.80970000000001
 31
0.0
  0
LINE
  5
529
330
1E
100
AcDbEntity
  8
default
  6
Continuous
 62
     1
100
AcDbLine
 10
-76.61129999999999
 20
98.4323
 30
0.0
 11
-76.80970000000001
 21
99.32769999999999
 31
0.0
  0
LINE
  5
52A
330
1E
100
AcDbEntity
  8
default
  6
Continuous
 62
     1
100
AcDbLine
 10
-99.32769999999999
 20
76.80970000000001
 30
0.0
 11
-100.2215999999999
 21
77.0059
 31
0.0
  0
LINE
  5
52B
330
1E
100
AcDbEntity
  8
default
  6
Continuous
 62
     1
100
AcDbLine
 10
-76.80970000000001
 20
99.32769999999999
 30
0.0
 11
-77.0059
 21
100.2215999999999
 31
0.0
  0
LINE
  5
52C
330
1E
100
AcDbEntity
  8
default
  6
Continuous
 62
     1
100
AcDbLine
 10
-100.2215999999999
 20
77.0059
 30
0.0
 11
-101.1150999999999
 21
77.2017
 31
0.0
  0
LINE
  5
52D
330
1E
100
AcDbEntity
  8
default
  6
Continuous
 62
     1
100
AcDbLine
 10
-77.0059
 20
100.2215999999999
 30
0.0
 11
-77.2017
 21
101.1150999999999
 31
0.0
  0
LINE
  5
52E
330
1E
100
AcDbEntity
  8
default
  6
Continuous
 62
     1
100
AcDbLine
 10
-101.1150999999999
 20
77.2017
 30
0.0
 11
-102.0091
 21
77.3982
 31
0.0
  0
LINE
  5
52F
330
1E
100
AcDbEntity
  8
default
  6
Continuous
 62
     1
100
AcDbLine
 10
-77.2017
 20
101.1150999999999
 30
0.0
 11
-77.3982
 21
102.0091
 31
0.0
  0
LINE
  5
530
330
1E
100
AcDbEntity
  8
default
  6
Continuous
 62
     1
100
AcDbLine
 10
-102.0091
 20
77.3982
 30
0.0
 11
-102.9041
 21
77.5966
 31
0.0
  0
LINE
  5
531
330
1E
100
AcDbEntity
  8
default
  6
Continuous
 62
     1
100
AcDbLine
 10
-77.3982
 20
102.0091
 30
0.0
 11
-77.5966
 21
102.9041
 31
0.0
  0
LINE
  5
532
330
1E
100
AcDbEntity
  8
default
  6
Continuous
 62
     1
100
AcDbLine
 10
-102.9041
 20
77.5966
 30
0.0
 11
-103.8007
 21
77.79810000000001
 31
0.0
  0
LINE
  5
533
330
1E
100
AcDbEntity
  8
default
  6
Continuous
 62
     1
100
AcDbLine
 10
-77.5966
 20
102.9041
 30
0.0
 11
-77.79810000000001
 21
103.8007
 31
0.0
  0
LINE
  5
534
330
1E
100
AcDbEntity
  8
default
  6
Continuous
 62
     1
100
AcDbLine
 10
-103.8007
 20
77.79810000000001
 30
0.0
 11
-104.6993999999999
 21
78.00360000000001
 31
0.0
  0
LINE
  5
535
330
1E
100
AcDbEntity
  8
default
  6
Continuous
 62
     1
100
AcDbLine
 10
-77.79810000000001
 20
103.8007
 30
0.0
 11
-78.00360000000001
 21
104.6993999999999
 31
0.0
  0
LINE
  5
536
330
1E
100
AcDbEntity
  8
default
  6
Continuous
 62
     1
100
AcDbLine
 10
-104.6993999999999
 20
78.00360000000001
 30
0.0
 11
-105.6008999999999
 21
78.21429999999999
 31
0.0
  0
LINE
  5
537
330
1E
100
AcDbEntity
  8
default
  6
Continuous
 62
     1
100
AcDbLine
 10
-78.00360000000001
 20
104.6993999999999
 30
0.0
 11
-78.21429999999999
 21
105.6008999999999
 31
0.0
  0
LINE
  5
538
330
1E
100
AcDbEntity
  8
default
  6
Continuous
 62
     1
100
AcDbLine
 10
-105.6008999999999
 20
78.21429999999999
 30
0.0
 11
-106.5056
 21
78.4311
 31
0.0
  0
LINE
  5
539
330
1E
100
AcDbEntity
  8
default
  6
Continuous
 62
     1
100
AcDbLine
 10
-78.21429999999999
 20
105.6008999999999
 30
0.0
 11
-78.4311
 21
106.5056
 31
0.0
  0
LINE
  5
53A
330
1E
100
AcDbEntity
  8
default
  6
Continuous
 62
     1
100
AcDbLine
 10
-106.5056
 20
78.4311
 30
0.0
 11
-107.414
 21
78.6551
 31
0.0
  0
LINE
  5
53B
330
1E
100
AcDbEntity
  8
default
  6
Continuous
 62
     1
100
AcDbLine
 10
-78.4311
 20
106.5056
 30
0.0
 11
-78.6551
 21
107.414
 31
0.0
  0
LINE
  5
53C
330
1E
100
AcDbEntity
  8
default
  6
Continuous
 62
     1
100
AcDbLine
 10
-107.414
 20
78.6551
 30
0.0
 11
-108.3264999999999
 21
78.88720000000001
 31
0.0
  0
LINE
  5
53D
330
1E
100
AcDbEntity
  8
default
  6
Continuous
 62
     1
100
AcDbLine
 10
-78.6551
 20
107.414
 30
0.0
 11
-78.88720000000001
 21
108.3264999999999
 31
0.0
  0
LINE
  5
53E
330
1E
100
AcDbEntity
  8
default
  6
Continuous
 62
     1
100
AcDbLine
 10
-108.3264999999999
 20
78.88720000000001
 30
0.0
 11
-109.2435999999999
 21
79.1284
 31
0.0
  0
LINE
  5
53F
330
1E
100
AcDbEntity
  8
default
  6
Continuous
 62
     1
100
AcDbLine
 10
-78.88720000000001
 20
108.3264999999999
 30
0.0
 11
-79.1284
 21
109.2435999999999
 31
0.0
  0
LINE
  5
540
330
1E
100
AcDbEntity
  8
default
  6
Continuous
 62
     1
100
AcDbLine
 10
-109.2435999999999
 20
79.1284
 30
0.0
 11
-110.1657
 21
79.37940000000001
 31
0.0
  0
LINE
  5
541
330
1E
100
AcDbEntity
  8
default
  6
Continuous
 62
     1
100
AcDbLine
 10
-79.1284
 20
109.2435999999999
 30
0.0
 11
-79.37940000000001
 21
110.1657
 31
0.0
  0
LINE
  5
542
330
1E
100
AcDbEntity
  8
default
  6
Continuous
 62
     1
100
AcDbLine
 10
-110.1657
 20
79.37940000000001
 30
0.0
 11
-111.0929999999999
 21
79.64109999999999
 31
0.0
  0
LINE
  5
543
330
1E
100
AcDbEntity
  8
default
  6
Continuous
 62
     1
100
AcDbLine
 10
-79.37940000000001
 20
110.1657
 30
0.0
 11
-79.64109999999999
 21
111.0929999999999
 31
0.0
  0
LINE
  5
544
330
1E
100
AcDbEntity
  8
default
  6
Continuous
 62
     1
100
AcDbLine
 10
-111.0929999999999
 20
79.64109999999999
 30
0.0
 11
-112.0257999999999
 21
79.9144
 31
0.0
  0
LINE
  5
545
330
1E
100
AcDbEntity
  8
default
  6
Continuous
 62
     1
100
AcDbLine
 10
-79.64109999999999
 20
111.0929999999999
 30
0.0
 11
-79.9144
 21
112.0257999999999
 31
0.0
  0
LINE
  5
546
330
1E
100
AcDbEntity
  8
default
  6
Continuous
 62
     1
100
AcDbLine
 10
-112.0257999999999
 20
79.9144
 30
0.0
 11
-112.9644
 21
80.1998
 31
0.0
  0
LINE
  5
547
330
1E
100
AcDbEntity
  8
default
  6
Continuous
 62
     1
100
AcDbLine
 10
-79.9144
 20
112.0257999999999
 30
0.0
 11
-80.1998
 21
112.9644
 31
0.0
  0
LINE
  5
548
330
1E
100
AcDbEntity
  8
default
  6
Continuous
 62
     1
100
AcDbLine
 10
-112.9644
 20
80.1998
 30
0.0
 11
-113.9089
 21
80.4982
 31
0.0
  0
LINE
  5
549
330
1E
100
AcDbEntity
  8
default
  6
Continuous
 62
     1
100
AcDbLine
 10
-80.1998
 20
112.9644
 30
0.0
 11
-80.4982
 21
113.9089
 31
0.0
  0
LINE
  5
54A
330
1E
100
AcDbEntity
  8
default
  6
Continuous
 62
     1
100
AcDbLine
 10
-113.9089
 20
80.4982
 30
0.0
 11
-114.8595999999999
 21
80.81000000000001
 31
0.0
  0
LINE
  5
54B
330
1E
100
AcDbEntity
  8
default
  6
Continuous
 62
     1
100
AcDbLine
 10
-80.4982
 20
113.9089
 30
0.0
 11
-80.81000000000001
 21
114.8595999999999
 31
0.0
  0
LINE
  5
54C
330
1E
100
AcDbEntity
  8
default
  6
Continuous
 62
     1
100
AcDbLine
 10
-114.8595999999999
 20
80.81000000000001
 30
0.0
 11
-115.8165
 21
81.13599999999999
 31
0.0
  0
LINE
  5
54D
330
1E
100
AcDbEntity
  8
default
  6
Continuous
 62
     1
100
AcDbLine
 10
-80.81000000000001
 20
114.8595999999999
 30
0.0
 11
-81.13599999999999
 21
115.8165
 31
0.0
  0
LINE
  5
54E
330
1E
100
AcDbEntity
  8
default
  6
Continuous
 62
     1
100
AcDbLine
 10
-115.8165
 20
81.13599999999999
 30
0.0
 11
-116.7796999999999
 21
81.4765
 31
0.0
  0
LINE
  5
54F
330
1E
100
AcDbEntity
  8
default
  6
Continuous
 62
     1
100
AcDbLine
 10
-81.13599999999999
 20
115.8165
 30
0.0
 11
-81.4765
 21
116.7796999999999
 31
0.0
  0
LINE
  5
550
330
1E
100
AcDbEntity
  8
default
  6
Continuous
 62
     1
100
AcDbLine
 10
-116.7796999999999
 20
81.4765
 30
0.0
 11
-117.7491
 21
81.8322
 31
0.0
  0
LINE
  5
551
330
1E
100
AcDbEntity
  8
default
  6
Continuous
 62
     1
100
AcDbLine
 10
-81.4765
 20
116.7796999999999
 30
0.0
 11
-81.8322
 21
117.7491
 31
0.0
  0
LINE
  5
552
330
1E
100
AcDbEntity
  8
default
  6
Continuous
 62
     1
100
AcDbLine
 10
-117.7491
 20
81.8322
 30
0.0
 11
-118.7248999999999
 21
82.2034
 31
0.0
  0
LINE
  5
553
330
1E
100
AcDbEntity
  8
default
  6
Continuous
 62
     1
100
AcDbLine
 10
-81.8322
 20
117.7491
 30
0.0
 11
-82.2034
 21
118.7248999999999
 31
0.0
  0
LINE
  5
554
330
1E
100
AcDbEntity
  8
default
  6
Continuous
 62
     1
100
AcDbLine
 10
-118.7248999999999
 20
82.2034
 30
0.0
 11
-119.7069
 21
82.59059999999999
 31
0.0
  0
LINE
  5
555
330
1E
100
AcDbEntity
  8
default
  6
Continuous
 62
     1
100
AcDbLine
 10
-82.2034
 20
118.7248999999999
 30
0.0
 11
-82.59059999999999
 21
119.7069
 31
0.0
  0
LINE
  5
556
330
1E
100
AcDbEntity
  8
default
  6
Continuous
 62
     1
100
AcDbLine
 10
-119.7069
 20
82.59059999999999
 30
0.0
 11
-120.6949999999999
 21
82.994
 31
0.0
  0
LINE
  5
557
330
1E
100
AcDbEntity
  8
default
  6
Continuous
 62
     1
100
AcDbLine
 10
-82.59059999999999
 20
119.7069
 30
0.0
 11
-82.994
 21
120.6949999999999
 31
0.0
  0
LINE
  5
558
330
1E
100
AcDbEntity
  8
default
  6
Continuous
 62
     1
100
AcDbLine
 10
-120.6949999999999
 20
82.994
 30
0.0
 11
-121.6890999999999
 21
83.414
 31
0.0
  0
LINE
  5
559
330
1E
100
AcDbEntity
  8
default
  6
Continuous
 62
     1
100
AcDbLine
 10
-82.994
 20
120.6949999999999
 30
0.0
 11
-83.414
 21
121.6890999999999
 31
0.0
  0
LINE
  5
55A
330
1E
100
AcDbEntity
  8
default
  6
Continuous
 62
     1
100
AcDbLine
 10
-121.6890999999999
 20
83.414
 30
0.0
 11
-122.689
 21
83.85089999999999
 31
0.0
  0
LINE
  5
55B
330
1E
100
AcDbEntity
  8
default
  6
Continuous
 62
     1
100
AcDbLine
 10
-83.414
 20
121.6890999999999
 30
0.0
 11
-83.85089999999999
 21
122.689
 31
0.0
  0
LINE
  5
55C
330
1E
100
AcDbEntity
  8
default
  6
Continuous
 62
     1
100
AcDbLine
 10
-122.689
 20
83.85089999999999
 30
0.0
 11
-123.6945999999999
 21
84.3049
 31
0.0
  0
LINE
  5
55D
330
1E
100
AcDbEntity
  8
default
  6
Continuous
 62
     1
100
AcDbLine
 10
-83.85089999999999
 20
122.689
 30
0.0
 11
-84.3049
 21
123.6945999999999
 31
0.0
  0
LINE
  5
55E
330
1E
100
AcDbEntity
  8
default
  6
Continuous
 62
     1
100
AcDbLine
 10
-123.6945999999999
 20
84.3049
 30
0.0
 11
-124.7056
 21
84.7761
 31
0.0
  0
LINE
  5
55F
330
1E
100
AcDbEntity
  8
default
  6
Continuous
 62
     1
100
AcDbLine
 10
-84.3049
 20
123.6945999999999
 30
0.0
 11
-84.7761
 21
124.7056
 31
0.0
  0
LINE
  5
560
330
1E
100
AcDbEntity
  8
default
  6
Continuous
 62
     1
100
AcDbLine
 10
-124.7056
 20
84.7761
 30
0.0
 11
-125.7217999999999
 21
85.26470000000001
 31
0.0
  0
LINE
  5
561
330
1E
100
AcDbEntity
  8
default
  6
Continuous
 62
     1
100
AcDbLine
 10
-84.7761
 20
124.7056
 30
0.0
 11
-85.26470000000001
 21
125.7217999999999
 31
0.0
  0
LINE
  5
562
330
1E
100
AcDbEntity
  8
default
  6
Continuous
 62
     1
100
AcDbLine
 10
-125.7217999999999
 20
85.26470000000001
 30
0.0
 11
-126.7429
 21
85.7708
 31
0.0
  0
LINE
  5
563
330
1E
100
AcDbEntity
  8
default
  6
Continuous
 62
     1
100
AcDbLine
 10
-85.26470000000001
 20
125.7217999999999
 30
0.0
 11
-85.7708
 21
126.7429
 31
0.0
  0
LINE
  5
564
330
1E
100
AcDbEntity
  8
default
  6
Continuous
 62
     1
100
AcDbLine
 10
-126.7429
 20
85.7708
 30
0.0
 11
-127.7686
 21
86.29459999999999
 31
0.0
  0
LINE
  5
565
330
1E
100
AcDbEntity
  8
default
  6
Continuous
 62
     1
100
AcDbLine
 10
-85.7708
 20
126.7429
 30
0.0
 11
-86.29459999999999
 21
127.7686
 31
0.0
  0
LINE
  5
566
330
1E
100
AcDbEntity
  8
default
  6
Continuous
 62
     1
100
AcDbLine
 10
-127.7686
 20
86.29459999999999
 30
0.0
 11
-128.7985999999999
 21
86.836
 31
0.0
  0
LINE
  5
567
330
1E
100
AcDbEntity
  8
default
  6
Continuous
 62
     1
100
AcDbLine
 10
-86.29459999999999
 20
127.7686
 30
0.0
 11
-86.836
 21
128.7985999999999
 31
0.0
  0
LINE
  5
568
330
1E
100
AcDbEntity
  8
default
  6
Continuous
 62
     1
100
AcDbLine
 10
-128.7985999999999
 20
86.836
 30
0.0
 11
-129.8326
 21
87.3951
 31
0.0
  0
LINE
  5
569
330
1E
100
AcDbEntity
  8
default
  6
Continuous
 62
     1
100
AcDbLine
 10
-86.836
 20
128.7985999999999
 30
0.0
 11
-87.3951
 21
129.8326
 31
0.0
  0
LINE
  5
56A
330
1E
100
AcDbEntity
  8
default
  6
Continuous
 62
     1
100
AcDbLine
 10
-129.8326
 20
87.3951
 30
0.0
 11
-130.8701
 21
87.9718
 31
0.0
  0
LINE
  5
56B
330
1E
100
AcDbEntity
  8
default
  6
Continuous
 62
     1
100
AcDbLine
 10
-87.3951
 20
129.8326
 30
0.0
 11
-87.9718
 21
130.8701
 31
0.0
  0
LINE
  5
56C
330
1E
100
AcDbEntity
  8
default
  6
Continuous
 62
     1
100
AcDbLine
 10
-130.8701
 20
87.9718
 30
0.0
 11
-131.9107999999999
 21
88.56619999999999
 31
0.0
  0
LINE
  5
56D
330
1E
100
AcDbEntity
  8
default
  6
Continuous
 62
     1
100
AcDbLine
 10
-87.9718
 20
130.8701
 30
0.0
 11
-88.56619999999999
 21
131.9107999999999
 31
0.0
  0
LINE
  5
56E
330
1E
100
AcDbEntity
  8
default
  6
Continuous
 62
     1
100
AcDbLine
 10
-131.9107999999999
 20
88.56619999999999
 30
0.0
 11
-132.9542999999999
 21
89.17810000000001
 31
0.0
  0
LINE
  5
56F
330
1E
100
AcDbEntity
  8
default
  6
Continuous
 62
     1
100
AcDbLine
 10
-88.56619999999999
 20
131.9107999999999
 30
0.0
 11
-89.17810000000001
 21
132.9542999999999
 31
0.0
  0
LINE
  5
570
330
1E
100
AcDbEntity
  8
default
  6
Continuous
 62
     1
100
AcDbLine
 10
-132.9542999999999
 20
89.17810000000001
 30
0.0
 11
-134.0002
 21
89.8075
 31
0.0
  0
LINE
  5
571
330
1E
100
AcDbEntity
  8
default
  6
Continuous
 62
     1
100
AcDbLine
 10
-89.17810000000001
 20
132.9542999999999
 30
0.0
 11
-89.8075
 21
134.0002
 31
0.0
  0
LINE
  5
572
330
1E
100
AcDbEntity
  8
default
  6
Continuous
 62
     1
100
AcDbLine
 10
-134.0002
 20
89.8075
 30
0.0
 11
-135.048
 21
90.45430000000001
 31
0.0
  0
LINE
  5
573
330
1E
100
AcDbEntity
  8
default
  6
Continuous
 62
     1
100
AcDbLine
 10
-89.8075
 20
134.0002
 30
0.0
 11
-90.45430000000001
 21
135.048
 31
0.0
  0
LINE
  5
574
330
1E
100
AcDbEntity
  8
default
  6
Continuous
 62
     1
100
AcDbLine
 10
-135.048
 20
90.45430000000001
 30
0.0
 11
-136.0973999999999
 21
91.11819999999999
 31
0.0
  0
LINE
  5
575
330
1E
100
AcDbEntity
  8
default
  6
Continuous
 62
     1
100
AcDbLine
 10
-90.45430000000001
 20
135.048
 30
0.0
 11
-91.11819999999999
 21
136.0973999999999
 31
0.0
  0
LINE
  5
576
330
1E
100
AcDbEntity
  8
default
  6
Continuous
 62
     1
100
AcDbLine
 10
-136.0973999999999
 20
91.11819999999999
 30
0.0
 11
-137.1477999999999
 21
91.7992
 31
0.0
  0
LINE
  5
577
330
1E
100
AcDbEntity
  8
default
  6
Continuous
 62
     1
100
AcDbLine
 10
-91.11819999999999
 20
136.0973999999999
 30
0.0
 11
-91.7992
 21
137.1477999999999
 31
0.0
  0
LINE
  5
578
330
1E
100
AcDbEntity
  8
default
  6
Continuous
 62
     1
100
AcDbLine
 10
-137.1477999999999
 20
91.7992
 30
0.0
 11
-138.1987999999999
 21
92.497
 31
0.0
  0
LINE
  5
579
330
1E
100
AcDbEntity
  8
default
  6
Continuous
 62
     1
100
AcDbLine
 10
-91.7992
 20
137.1477999999999
 30
0.0
 11
-92.497
 21
138.1987999999999
 31
0.0
  0
LINE
  5
57A
330
1E
100
AcDbEntity
  8
default
  6
Continuous
 62
     1
100
AcDbLine
 10
-138.1987999999999
 20
92.497
 30
0.0
 11
-139.2498999999999
 21
93.21150000000001
 31
0.0
  0
LINE
  5
57B
330
1E
100
AcDbEntity
  8
default
  6
Continuous
 62
     1
100
AcDbLine
 10
-92.497
 20
138.1987999999999
 30
0.0
 11
-93.21150000000001
 21
139.2498999999999
 31
0.0
  0
LINE
  5
57C
330
1E
100
AcDbEntity
  8
default
  6
Continuous
 62
     1
100
AcDbLine
 10
-139.2498999999999
 20
93.21150000000001
 30
0.0
 11
-140.3005999999999
 21
93.9423
 31
0.0
  0
LINE
  5
57D
330
1E
100
AcDbEntity
  8
default
  6
Continuous
 62
     1
100
AcDbLine
 10
-93.21150000000001
 20
139.2498999999999
 30
0.0
 11
-93.9423
 21
140.3005999999999
 31
0.0
  0
LINE
  5
57E
330
1E
100
AcDbEntity
  8
default
  6
Continuous
 62
     1
100
AcDbLine
 10
-140.3005999999999
 20
93.9423
 30
0.0
 11
-141.3505
 21
94.6893
 31
0.0
  0
LINE
  5
57F
330
1E
100
AcDbEntity
  8
default
  6
Continuous
 62
     1
100
AcDbLine
 10
-93.9423
 20
140.3005999999999
 30
0.0
 11
-94.6893
 21
141.3505
 31
0.0
  0
LINE
  5
580
330
1E
100
AcDbEntity
  8
default
  6
Continuous
 62
     1
100
AcDbLine
 10
-141.3505
 20
94.6893
 30
0.0
 11
-142.3991
 21
95.4521
 31
0.0
  0
LINE
  5
581
330
1E
100
AcDbEntity
  8
default
  6
Continuous
 62
     1
100
AcDbLine
 10
-94.6893
 20
141.3505
 30
0.0
 11
-95.4521
 21
142.3991
 31
0.0
  0
LINE
  5
582
330
1E
100
AcDbEntity
  8
default
  6
Continuous
 62
     1
100
AcDbLine
 10
-142.3991
 20
95.4521
 30
0.0
 11
-143.4458
 21
96.2305
 31
0.0
  0
LINE
  5
583
330
1E
100
AcDbEntity
  8
default
  6
Continuous
 62
     1
100
AcDbLine
 10
-95.4521
 20
142.3991
 30
0.0
 11
-96.2305
 21
143.4458
 31
0.0
  0
LINE
  5
584
330
1E
100
AcDbEntity
  8
default
  6
Continuous
 62
     1
100
AcDbLine
 10
-143.4458
 20
96.2305
 30
0.0
 11
-144.4901
 21
97.0242
 31
0.0
  0
LINE
  5
585
330
1E
100
AcDbEntity
  8
default
  6
Continuous
 62
     1
100
AcDbLine
 10
-96.2305
 20
143.4458
 30
0.0
 11
-97.0242
 21
144.4901
 31
0.0
  0
LINE
  5
586
330
1E
100
AcDbEntity
  8
default
  6
Continuous
 62
     1
100
AcDbLine
 10
-144.4901
 20
97.0242
 30
0.0
 11
-145.5316
 21
97.83280000000001
 31
0.0
  0
LINE
  5
587
330
1E
100
AcDbEntity
  8
default
  6
Continuous
 62
     1
100
AcDbLine
 10
-97.0242
 20
144.4901
 30
0.0
 11
-97.83280000000001
 21
145.5316
 31
0.0
  0
LINE
  5
588
330
1E
100
AcDbEntity
  8
default
  6
Continuous
 62
     1
100
AcDbLine
 10
-145.5316
 20
97.83280000000001
 30
0.0
 11
-146.5696
 21
98.6561
 31
0.0
  0
LINE
  5
589
330
1E
100
AcDbEntity
  8
default
  6
Continuous
 62
     1
100
AcDbLine
 10
-97.83280000000001
 20
145.5316
 30
0.0
 11
-98.6561
 21
146.5696
 31
0.0
  0
LINE
  5
58A
330
1E
100
AcDbEntity
  8
default
  6
Continuous
 62
     1
100
AcDbLine
 10
-146.5696
 20
98.6561
 30
0.0
 11
-147.6038
 21
99.4935
 31
0.0
  0
LINE
  5
58B
330
1E
100
AcDbEntity
  8
default
  6
Continuous
 62
     1
100
AcDbLine
 10
-98.6561
 20
146.5696
 30
0.0
 11
-99.4935
 21
147.6038
 31
0.0
  0
LINE
  5
58C
330
1E
100
AcDbEntity
  8
default
  6
Continuous
 62
     1
100
AcDbLine
 10
-147.6038
 20
99.4935
 30
0.0
 11
-148.6336
 21
100.3449
 31
0.0
  0
LINE
  5
58D
330
1E
100
AcDbEntity
  8
default
  6
Continuous
 62
     1
100
AcDbLine
 10
-99.4935
 20
147.6038
 30
0.0
 11
-100.3449
 21
148.6336
 31
0.0
  0
LINE
  5
58E
330
1E
100
AcDbEntity
  8
default
  6
Continuous
 62
     1
100
AcDbLine
 10
-148.6336
 20
100.3449
 30
0.0
 11
-149.6584
 21
101.2097
 31
0.0
  0
LINE
  5
58F
330
1E
100
AcDbEntity
  8
default
  6
Continuous
 62
     1
100
AcDbLine
 10
-100.3449
 20
148.6336
 30
0.0
 11
-101.2097
 21
149.6584
 31
0.0
  0
LINE
  5
590
330
1E
100
AcDbEntity
  8
default
  6
Continuous
 62
     1
100
AcDbLine
 10
-149.6584
 20
101.2097
 30
0.0
 11
-150.6776999999999
 21
102.0875999999999
 31
0.0
  0
LINE
  5
591
330
1E
100
AcDbEntity
  8
default
  6
Continuous
 62
     1
100
AcDbLine
 10
-101.2097
 20
149.6584
 30
0.0
 11
-102.0875999999999
 21
150.6776999999999
 31
0.0
  0
LINE
  5
592
330
1E
100
AcDbEntity
  8
default
  6
Continuous
 62
     1
100
AcDbLine
 10
-150.6776999999999
 20
102.0875999999999
 30
0.0
 11
-151.6911
 21
102.9781999999999
 31
0.0
  0
LINE
  5
593
330
1E
100
AcDbEntity
  8
default
  6
Continuous
 62
     1
100
AcDbLine
 10
-102.0875999999999
 20
150.6776999999999
 30
0.0
 11
-102.9781999999999
 21
151.6911
 31
0.0
  0
LINE
  5
594
330
1E
100
AcDbEntity
  8
default
  6
Continuous
 62
     1
100
AcDbLine
 10
-151.6911
 20
102.9781999999999
 30
0.0
 11
-152.698
 21
103.881
 31
0.0
  0
LINE
  5
595
330
1E
100
AcDbEntity
  8
default
  6
Continuous
 62
     1
100
AcDbLine
 10
-102.9781999999999
 20
151.6911
 30
0.0
 11
-103.881
 21
152.698
 31
0.0
  0
LINE
  5
596
330
1E
100
AcDbEntity
  8
default
  6
Continuous
 62
     1
100
AcDbLine
 10
-152.698
 20
103.881
 30
0.0
 11
-153.6979
 21
104.7957
 31
0.0
  0
LINE
  5
597
330
1E
100
AcDbEntity
  8
default
  6
Continuous
 62
     1
100
AcDbLine
 10
-103.881
 20
152.698
 30
0.0
 11
-104.7957
 21
153.6979
 31
0.0
  0
LINE
  5
598
330
1E
100
AcDbEntity
  8
default
  6
Continuous
 62
     1
100
AcDbLine
 10
-153.6979
 20
104.7957
 30
0.0
 11
-154.6903
 21
105.7217
 31
0.0
  0
LINE
  5
599
330
1E
100
AcDbEntity
  8
default
  6
Continuous
 62
     1
100
AcDbLine
 10
-104.7957
 20
153.6979
 30
0.0
 11
-105.7217
 21
154.6903
 31
0.0
  0
LINE
  5
59A
330
1E
100
AcDbEntity
  8
default
  6
Continuous
 62
     1
100
AcDbLine
 10
-154.6903
 20
105.7217
 30
0.0
 11
-155.6745999999999
 21
106.6586
 31
0.0
  0
LINE
  5
59B
330
1E
100
AcDbEntity
  8
default
  6
Continuous
 62
     1
100
AcDbLine
 10
-105.7217
 20
154.6903
 30
0.0
 11
-106.6586
 21
155.6745999999999
 31
0.0
  0
LINE
  5
59C
330
1E
100
AcDbEntity
  8
default
  6
Continuous
 62
     1
100
AcDbLine
 10
-155.6745999999999
 20
106.6586
 30
0.0
 11
-156.6505
 21
107.606
 31
0.0
  0
LINE
  5
59D
330
1E
100
AcDbEntity
  8
default
  6
Continuous
 62
     1
100
AcDbLine
 10
-106.6586
 20
155.6745999999999
 30
0.0
 11
-107.606
 21
156.6505
 31
0.0
  0
LINE
  5
59E
330
1E
100
AcDbEntity
  8
default
  6
Continuous
 62
     1
100
AcDbLine
 10
-156.6505
 20
107.606
 30
0.0
 11
-157.6173
 21
108.5633
 31
0.0
  0
LINE
  5
59F
330
1E
100
AcDbEntity
  8
default
  6
Continuous
 62
     1
100
AcDbLine
 10
-107.606
 20
156.6505
 30
0.0
 11
-108.5633
 21
157.6173
 31
0.0
  0
LINE
  5
5A0
330
1E
100
AcDbEntity
  8
default
  6
Continuous
 62
     1
100
AcDbLine
 10
-157.6173
 20
108.5633
 30
0.0
 11
-108.5633
 21
157.6173
 31
0.0
  0
LINE
  5
5A1
330
1E
100
AcDbEntity
  8
default
  6
Continuous
 62
     1
100
AcDbLine
 10
-80.0
 20
0.0
 30
0.0
 11
-81.38249999999999
 21
-0.2074
 31
0.0
  0
LINE
  5
5A2
330
1E
100
AcDbEntity
  8
default
  6
Continuous
 62
     1
100
AcDbLine
 10
-80.0
 20
0.0
 30
0.0
 11
-81.38249999999999
 21
0.2074
 31
0.0
  0
LINE
  5
5A3
330
1E
100
AcDbEntity
  8
default
  6
Continuous
 62
     1
100
AcDbLine
 10
-81.38249999999999
 20
-0.2074
 30
0.0
 11
-82.75879999999999
 21
-0.4268
 31
0.0
  0
LINE
  5
5A4
330
1E
100
AcDbEntity
  8
default
  6
Continuous
 62
     1
100
AcDbLine
 10
-81.38249999999999
 20
0.2074
 30
0.0
 11
-82.75879999999999
 21
0.4268
 31
0.0
  0
LINE
  5
5A5
330
1E
100
AcDbEntity
  8
default
  6
Continuous
 62
     1
100
AcDbLine
 10
-82.75879999999999
 20
-0.4268
 30
0.0
 11
-84.12779999999999
 21
-0.6582
 31
0.0
  0
LINE
  5
5A6
330
1E
100
AcDbEntity
  8
default
  6
Continuous
 62
     1
100
AcDbLine
 10
-82.75879999999999
 20
0.4268
 30
0.0
 11
-84.12779999999999
 21
0.6582
 31
0.0
  0
LINE
  5
5A7
330
1E
100
AcDbEntity
  8
default
  6
Continuous
 62
     1
100
AcDbLine
 10
-84.12779999999999
 20
-0.6582
 30
0.0
 11
-85.4888
 21
-0.9013999999999999
 31
0.0
  0
LINE
  5
5A8
330
1E
100
AcDbEntity
  8
default
  6
Continuous
 62
     1
100
AcDbLine
 10
-84.12779999999999
 20
0.6582
 30
0.0
 11
-85.4888
 21
0.9013999999999999
 31
0.0
  0
LINE
  5
5A9
330
1E
100
AcDbEntity
  8
default
  6
Continuous
 62
     1
100
AcDbLine
 10
-85.4888
 20
-0.9013999999999999
 30
0.0
 11
-86.8407
 21
-1.156199999999999
 31
0.0
  0
LINE
  5
5AA
330
1E
100
AcDbEntity
  8
default
  6
Continuous
 62
     1
100
AcDbLine
 10
-85.4888
 20
0.9013999999999999
 30
0.0
 11
-86.8407
 21
1.156199999999999
 31
0.0
  0
LINE
  5
5AB
330
1E
100
AcDbEntity
  8
default
  6
Continuous
 62
     1
100
AcDbLine
 10
-86.8407
 20
-1.156199999999999
 30
0.0
 11
-88.1826
 21
-1.4224
 31
0.0
  0
LINE
  5
5AC
330
1E
100
AcDbEntity
  8
default
  6
Continuous
 62
     1
100
AcDbLine
 10
-86.8407
 20
1.156199999999999
 30
0.0
 11
-88.1826
 21
1.4224
 31
0.0
  0
LINE
  5
5AD
330
1E
100
AcDbEntity
  8
default
  6
Continuous
 62
     1
100
AcDbLine
 10
-88.1826
 20
-1.4224
 30
0.0
 11
-89.5137
 21
-1.699799999999999
 31
0.0
  0
LINE
  5
5AE
330
1E
100
AcDbEntity
  8
default
  6
Continuous
 62
     1
100
AcDbLine
 10
-88.1826
 20
1.4224
 30
0.0
 11
-89.5137
 21
1.699799999999999
 31
0.0
  0
LINE
  5
5AF
330
1E
100
AcDbEntity
  8
default
  6
Continuous
 62
     1
100
AcDbLine
 10
-89.5137
 20
-1.699799999999999
 30
0.0
 11
-90.83299999999999
 21
-1.988199999999999
 31
0.0
  0
LINE
  5
5B0
330
1E
100
AcDbEntity
  8
default
  6
Continuous
 62
     1
100
AcDbLine
 10
-89.5137
 20
1.699799999999999
 30
0.0
 11
-90.83299999999999
 21
1.988199999999999
 31
0.0
  0
LINE
  5
5B1
330
1E
100
AcDbEntity
  8
default
  6
Continuous
 62
     1
100
AcDbLine
 10
-90.83299999999999
 20
-1.988199999999999
 30
0.0
 11
-92.1396
 21
-2.287399999999999
 31
0.0
  0
LINE
  5
5B2
330
1E
100
AcDbEntity
  8
default
  6
Continuous
 62
     1
100
AcDbLine
 10
-90.83299999999999
 20
1.988199999999999
 30
0.0
 11
-92.1396
 21
2.287399999999999
 31
0.0
  0
LINE
  5
5B3
330
1E
100
AcDbEntity
  8
default
  6
Continuous
 62
     1
100
AcDbLine
 10
-92.1396
 20
-2.287399999999999
 30
0.0
 11
-93.4327
 21
-2.5971
 31
0.0
  0
LINE
  5
5B4
330
1E
100
AcDbEntity
  8
default
  6
Continuous
 62
     1
100
AcDbLine
 10
-92.1396
 20
2.287399999999999
 30
0.0
 11
-93.4327
 21
2.5971
 31
0.0
  0
LINE
  5
5B5
330
1E
100
AcDbEntity
  8
default
  6
Continuous
 62
     1
100
AcDbLine
 10
-93.4327
 20
-2.5971
 30
0.0
 11
-94.71149999999999
 21
-2.917199999999999
 31
0.0
  0
LINE
  5
5B6
330
1E
100
AcDbEntity
  8
default
  6
Continuous
 62
     1
100
AcDbLine
 10
-93.4327
 20
2.5971
 30
0.0
 11
-94.71149999999999
 21
2.917199999999999
 31
0.0
  0
LINE
  5
5B7
330
1E
100
AcDbEntity
  8
default
  6
Continuous
 62
     1
100
AcDbLine
 10
-94.71149999999999
 20
-2.917199999999999
 30
0.0
 11
-95.97520000000001
 21
-3.247399999999999
 31
0.0
  0
LINE
  5
5B8
330
1E
100
AcDbEntity
  8
default
  6
Continuous
 62
     1
100
AcDbLine
 10
-94.71149999999999
 20
2.917199999999999
 30
0.0
 11
-95.97520000000001
 21
3.247399999999999
 31
0.0
  0
LINE
  5
5B9
330
1E
100
AcDbEntity
  8
default
  6
Continuous
 62
     1
100
AcDbLine
 10
-95.97520000000001
 20
-3.247399999999999
 30
0.0
 11
-97.2229
 21
-3.5874
 31
0.0
  0
LINE
  5
5BA
330
1E
100
AcDbEntity
  8
default
  6
Continuous
 62
     1
100
AcDbLine
 10
-95.97520000000001
 20
3.247399999999999
 30
0.0
 11
-97.2229
 21
3.5874
 31
0.0
  0
LINE
  5
5BB
330
1E
100
AcDbEntity
  8
default
  6
Continuous
 62
     1
100
AcDbLine
 10
-97.2229
 20
-3.5874
 30
0.0
 11
-98.45399999999999
 21
-3.9371
 31
0.0
  0
LINE
  5
5BC
330
1E
100
AcDbEntity
  8
default
  6
Continuous
 62
     1
100
AcDbLine
 10
-97.2229
 20
3.5874
 30
0.0
 11
-98.45399999999999
 21
3.9371
 31
0.0
  0
LINE
  5
5BD
330
1E
100
AcDbEntity
  8
default
  6
Continuous
 62
     1
100
AcDbLine
 10
-98.45399999999999
 20
-3.9371
 30
0.0
 11
-99.66779999999999
 21
-4.2961
 31
0.0
  0
LINE
  5
5BE
330
1E
100
AcDbEntity
  8
default
  6
Continuous
 62
     1
100
AcDbLine
 10
-98.45399999999999
 20
3.9371
 30
0.0
 11
-99.66779999999999
 21
4.2961
 31
0.0
  0
LINE
  5
5BF
330
1E
100
AcDbEntity
  8
default
  6
Continuous
 62
     1
100
AcDbLine
 10
-99.66779999999999
 20
-4.2961
 30
0.0
 11
-100.8636
 21
-4.6641
 31
0.0
  0
LINE
  5
5C0
330
1E
100
AcDbEntity
  8
default
  6
Continuous
 62
     1
100
AcDbLine
 10
-99.66779999999999
 20
4.2961
 30
0.0
 11
-100.8636
 21
4.6641
 31
0.0
  0
LINE
  5
5C1
330
1E
100
AcDbEntity
  8
default
  6
Continuous
 62
     1
100
AcDbLine
 10
-100.8636
 20
-4.6641
 30
0.0
 11
-102.0407999999999
 21
-5.041
 31
0.0
  0
LINE
  5
5C2
330
1E
100
AcDbEntity
  8
default
  6
Continuous
 62
     1
100
AcDbLine
 10
-100.8636
 20
4.6641
 30
0.0
 11
-102.0407999999999
 21
5.041
 31
0.0
  0
LINE
  5
5C3
330
1E
100
AcDbEntity
  8
default
  6
Continuous
 62
     1
100
AcDbLine
 10
-102.0407999999999
 20
-5.041
 30
0.0
 11
-103.1989
 21
-5.4264
 31
0.0
  0
LINE
  5
5C4
330
1E
100
AcDbEntity
  8
default
  6
Continuous
 62
     1
100
AcDbLine
 10
-102.0407999999999
 20
5.041
 30
0.0
 11
-103.1989
 21
5.4264
 31
0.0
  0
LINE
  5
5C5
330
1E
100
AcDbEntity
  8
default
  6
Continuous
 62
     1
100
AcDbLine
 10
-103.1989
 20
-5.4264
 30
0.0
 11
-104.3373
 21
-5.8201
 31
0.0
  0
LINE
  5
5C6
330
1E
100
AcDbEntity
  8
default
  6
Continuous
 62
     1
100
AcDbLine
 10
-103.1989
 20
5.4264
 30
0.0
 11
-104.3373
 21
5.8201
 31
0.0
  0
LINE
  5
5C7
330
1E
100
AcDbEntity
  8
default
  6
Continuous
 62
     1
100
AcDbLine
 10
-104.3373
 20
-5.8201
 30
0.0
 11
-105.4556999999999
 21
-6.2217
 31
0.0
  0
LINE
  5
5C8
330
1E
100
AcDbEntity
  8
default
  6
Continuous
 62
     1
100
AcDbLine
 10
-104.3373
 20
5.8201
 30
0.0
 11
-105.4556999999999
 21
6.2217
 31
0.0
  0
LINE
  5
5C9
330
1E
100
AcDbEntity
  8
default
  6
Continuous
 62
     1
100
AcDbLine
 10
-105.4556999999999
 20
-6.2217
 30
0.0
 11
-106.5537999999999
 21
-6.630899999999999
 31
0.0
  0
LINE
  5
5CA
330
1E
100
AcDbEntity
  8
default
  6
Continuous
 62
     1
100
AcDbLine
 10
-105.4556999999999
 20
6.2217
 30
0.0
 11
-106.5537999999999
 21
6.630899999999999
 31
0.0
  0
LINE
  5
5CB
330
1E
100
AcDbEntity
  8
default
  6
Continuous
 62
     1
100
AcDbLine
 10
-106.5537999999999
 20
-6.630899999999999
 30
0.0
 11
-107.6311
 21
-7.0475
 31
0.0
  0
LINE
  5
5CC
330
1E
100
AcDbEntity
  8
default
  6
Continuous
 62
     1
100
AcDbLine
 10
-106.5537999999999
 20
6.630899999999999
 30
0.0
 11
-107.6311
 21
7.0475
 31
0.0
  0
LINE
  5
5CD
330
1E
100
AcDbEntity
  8
default
  6
Continuous
 62
     1
100
AcDbLine
 10
-107.6311
 20
-7.0475
 30
0.0
 11
-108.6875
 21
-7.471099999999999
 31
0.0
  0
LINE
  5
5CE
330
1E
100
AcDbEntity
  8
default
  6
Continuous
 62
     1
100
AcDbLine
 10
-107.6311
 20
7.0475
 30
0.0
 11
-108.6875
 21
7.471099999999999
 31
0.0
  0
LINE
  5
5CF
330
1E
100
AcDbEntity
  8
default
  6
Continuous
 62
     1
100
AcDbLine
 10
-108.6875
 20
-7.471099999999999
 30
0.0
 11
-109.7229999999999
 21
-7.9015
 31
0.0
  0
LINE
  5
5D0
330
1E
100
AcDbEntity
  8
default
  6
Continuous
 62
     1
100
AcDbLine
 10
-108.6875
 20
7.471099999999999
 30
0.0
 11
-109.7229999999999
 21
7.9015
 31
0.0
  0
LINE
  5
5D1
330
1E
100
AcDbEntity
  8
default
  6
Continuous
 62
     1
100
AcDbLine
 10
-109.7229999999999
 20
-7.9015
 30
0.0
 11
-110.7373999999999
 21
-8.3383
 31
0.0
  0
LINE
  5
5D2
330
1E
100
AcDbEntity
  8
default
  6
Continuous
 62
     1
100
AcDbLine
 10
-109.7229999999999
 20
7.9015
 30
0.0
 11
-110.7373999999999
 21
8.3383
 31
0.0
  0
LINE
  5
5D3
330
1E
100
AcDbEntity
  8
default
  6
Continuous
 62
     1
100
AcDbLine
 10
-110.7373999999999
 20
-8.3383
 30
0.0
 11
-111.7309
 21
-8.7811
 31
0.0
  0
LINE
  5
5D4
330
1E
100
AcDbEntity
  8
default
  6
Continuous
 62
     1
100
AcDbLine
 10
-110.7373999999999
 20
8.3383
 30
0.0
 11
-111.7309
 21
8.7811
 31
0.0
  0
LINE
  5
5D5
330
1E
100
AcDbEntity
  8
default
  6
Continuous
 62
     1
100
AcDbLine
 10
-111.7309
 20
-8.7811
 30
0.0
 11
-112.7037
 21
-9.229799999999999
 31
0.0
  0
LINE
  5
5D6
330
1E
100
AcDbEntity
  8
default
  6
Continuous
 62
     1
100
AcDbLine
 10
-111.7309
 20
8.7811
 30
0.0
 11
-112.7037
 21
9.229799999999999
 31
0.0
  0
LINE
  5
5D7
330
1E
100
AcDbEntity
  8
default
  6
Continuous
 62
     1
100
AcDbLine
 10
-112.7037
 20
-9.229799999999999
 30
0.0
 11
-113.656
 21
-9.683799999999999
 31
0.0
  0
LINE
  5
5D8
330
1E
100
AcDbEntity
  8
default
  6
Continuous
 62
     1
100
AcDbLine
 10
-112.7037
 20
9.229799999999999
 30
0.0
 11
-113.656
 21
9.683799999999999
 31
0.0
  0
LINE
  5
5D9
330
1E
100
AcDbEntity
  8
default
  6
Continuous
 62
     1
100
AcDbLine
 10
-113.656
 20
-9.683799999999999
 30
0.0
 11
-114.5882
 21
-10.14289999999999
 31
0.0
  0
LINE
  5
5DA
330
1E
100
AcDbEntity
  8
default
  6
Continuous
 62
     1
100
AcDbLine
 10
-113.656
 20
9.683799999999999
 30
0.0
 11
-114.5882
 21
10.14289999999999
 31
0.0
  0
LINE
  5
5DB
330
1E
100
AcDbEntity
  8
default
  6
Continuous
 62
     1
100
AcDbLine
 10
-114.5882
 20
-10.14289999999999
 30
0.0
 11
-115.501
 21
-10.6068
 31
0.0
  0
LINE
  5
5DC
330
1E
100
AcDbEntity
  8
default
  6
Continuous
 62
     1
100
AcDbLine
 10
-114.5882
 20
10.14289999999999
 30
0.0
 11
-115.501
 21
10.6068
 31
0.0
  0
LINE
  5
5DD
330
1E
100
AcDbEntity
  8
default
  6
Continuous
 62
     1
100
AcDbLine
 10
-115.501
 20
-10.6068
 30
0.0
 11
-116.3949
 21
-11.0751
 31
0.0
  0
LINE
  5
5DE
330
1E
100
AcDbEntity
  8
default
  6
Continuous
 62
     1
100
AcDbLine
 10
-115.501
 20
10.6068
 30
0.0
 11
-116.3949
 21
11.0751
 31
0.0
  0
LINE
  5
5DF
330
1E
100
AcDbEntity
  8
default
  6
Continuous
 62
     1
100
AcDbLine
 10
-116.3949
 20
-11.0751
 30
0.0
 11
-117.2707999999999
 21
-11.5474
 31
0.0
  0
LINE
  5
5E0
330
1E
100
AcDbEntity
  8
default
  6
Continuous
 62
     1
100
AcDbLine
 10
-116.3949
 20
11.0751
 30
0.0
 11
-117.2707999999999
 21
11.5474
 31
0.0
  0
LINE
  5
5E1
330
1E
100
AcDbEntity
  8
default
  6
Continuous
 62
     1
100
AcDbLine
 10
-117.2707999999999
 20
-11.5474
 30
0.0
 11
-118.1297
 21
-12.0235
 31
0.0
  0
LINE
  5
5E2
330
1E
100
AcDbEntity
  8
default
  6
Continuous
 62
     1
100
AcDbLine
 10
-117.2707999999999
 20
11.5474
 30
0.0
 11
-118.1297
 21
12.0235
 31
0.0
  0
LINE
  5
5E3
330
1E
100
AcDbEntity
  8
default
  6
Continuous
 62
     1
100
AcDbLine
 10
-118.1297
 20
-12.0235
 30
0.0
 11
-118.9726999999999
 21
-12.5029
 31
0.0
  0
LINE
  5
5E4
330
1E
100
AcDbEntity
  8
default
  6
Continuous
 62
     1
100
AcDbLine
 10
-118.1297
 20
12.0235
 30
0.0
 11
-118.9726999999999
 21
12.5029
 31
0.0
  0
LINE
  5
5E5
330
1E
100
AcDbEntity
  8
default
  6
Continuous
 62
     1
100
AcDbLine
 10
-118.9726999999999
 20
-12.5029
 30
0.0
 11
-119.8009
 21
-12.9853
 31
0.0
  0
LINE
  5
5E6
330
1E
100
AcDbEntity
  8
default
  6
Continuous
 62
     1
100
AcDbLine
 10
-118.9726999999999
 20
12.5029
 30
0.0
 11
-119.8009
 21
12.9853
 31
0.0
  0
LINE
  5
5E7
330
1E
100
AcDbEntity
  8
default
  6
Continuous
 62
     1
100
AcDbLine
 10
-119.8009
 20
-12.9853
 30
0.0
 11
-120.6158999999999
 21
-13.4703
 31
0.0
  0
LINE
  5
5E8
330
1E
100
AcDbEntity
  8
default
  6
Continuous
 62
     1
100
AcDbLine
 10
-119.8009
 20
12.9853
 30
0.0
 11
-120.6158999999999
 21
13.4703
 31
0.0
  0
LINE
  5
5E9
330
1E
100
AcDbEntity
  8
default
  6
Continuous
 62
     1
100
AcDbLine
 10
-120.6158999999999
 20
-13.4703
 30
0.0
 11
-121.419
 21
-13.9577
 31
0.0
  0
LINE
  5
5EA
330
1E
100
AcDbEntity
  8
default
  6
Continuous
 62
     1
100
AcDbLine
 10
-120.6158999999999
 20
13.4703
 30
0.0
 11
-121.419
 21
13.9577
 31
0.0
  0
LINE
  5
5EB
330
1E
100
AcDbEntity
  8
default
  6
Continuous
 62
     1
100
AcDbLine
 10
-121.419
 20
-13.9577
 30
0.0
 11
-122.2118999999999
 21
-14.4469
 31
0.0
  0
LINE
  5
5EC
330
1E
100
AcDbEntity
  8
default
  6
Continuous
 62
     1
100
AcDbLine
 10
-121.419
 20
13.9577
 30
0.0
 11
-122.2118999999999
 21
14.4469
 31
0.0
  0
LINE
  5
5ED
330
1E
100
AcDbEntity
  8
default
  6
Continuous
 62
     1
100
AcDbLine
 10
-122.2118999999999
 20
-14.4469
 30
0.0
 11
-122.9964999999999
 21
-14.9378
 31
0.0
  0
LINE
  5
5EE
330
1E
100
AcDbEntity
  8
default
  6
Continuous
 62
     1
100
AcDbLine
 10
-122.2118999999999
 20
14.4469
 30
0.0
 11
-122.9964999999999
 21
14.9378
 31
0.0
  0
LINE
  5
5EF
330
1E
100
AcDbEntity
  8
default
  6
Continuous
 62
     1
100
AcDbLine
 10
-122.9964999999999
 20
-14.9378
 30
0.0
 11
-123.7745
 21
-15.4298
 31
0.0
  0
LINE
  5
5F0
330
1E
100
AcDbEntity
  8
default
  6
Continuous
 62
     1
100
AcDbLine
 10
-122.9964999999999
 20
14.9378
 30
0.0
 11
-123.7745
 21
15.4298
 31
0.0
  0
LINE
  5
5F1
330
1E
100
AcDbEntity
  8
default
  6
Continuous
 62
     1
100
AcDbLine
 10
-123.7745
 20
-15.4298
 30
0.0
 11
-124.548
 21
-15.9226
 31
0.0
  0
LINE
  5
5F2
330
1E
100
AcDbEntity
  8
default
  6
Continuous
 62
     1
100
AcDbLine
 10
-123.7745
 20
15.4298
 30
0.0
 11
-124.548
 21
15.9226
 31
0.0
  0
LINE
  5
5F3
330
1E
100
AcDbEntity
  8
default
  6
Continuous
 62
     1
100
AcDbLine
 10
-124.548
 20
-15.9226
 30
0.0
 11
-125.3187999999999
 21
-16.4159
 31
0.0
  0
LINE
  5
5F4
330
1E
100
AcDbEntity
  8
default
  6
Continuous
 62
     1
100
AcDbLine
 10
-124.548
 20
15.9226
 30
0.0
 11
-125.3187999999999
 21
16.4159
 31
0.0
  0
LINE
  5
5F5
330
1E
100
AcDbEntity
  8
default
  6
Continuous
 62
     1
100
AcDbLine
 10
-125.3187999999999
 20
-16.4159
 30
0.0
 11
-126.089
 21
-16.9094
 31
0.0
  0
LINE
  5
5F6
330
1E
100
AcDbEntity
  8
default
  6
Continuous
 62
     1
100
AcDbLine
 10
-125.3187999999999
 20
16.4159
 30
0.0
 11
-126.089
 21
16.9094
 31
0.0
  0
LINE
  5
5F7
330
1E
100
AcDbEntity
  8
default
  6
Continuous
 62
     1
100
AcDbLine
 10
-126.089
 20
-16.9094
 30
0.0
 11
-126.8601
 21
-17.4025
 31
0.0
  0
LINE
  5
5F8
330
1E
100
AcDbEntity
  8
default
  6
Continuous
 62
     1
100
AcDbLine
 10
-126.089
 20
16.9094
 30
0.0
 11
-126.8601
 21
17.4025
 31
0.0
  0
LINE
  5
5F9
330
1E
100
AcDbEntity
  8
default
  6
Continuous
 62
     1
100
AcDbLine
 10
-126.8601
 20
-17.4025
 30
0.0
 11
-127.6333
 21
-17.89509999999999
 31
0.0
  0
LINE
  5
5FA
330
1E
100
AcDbEntity
  8
default
  6
Continuous
 62
     1
100
AcDbLine
 10
-126.8601
 20
17.4025
 30
0.0
 11
-127.6333
 21
17.89509999999999
 31
0.0
  0
LINE
  5
5FB
330
1E
100
AcDbEntity
  8
default
  6
Continuous
 62
     1
100
AcDbLine
 10
-127.6333
 20
-17.89509999999999
 30
0.0
 11
-128.4096999999999
 21
-18.3866
 31
0.0
  0
LINE
  5
5FC
330
1E
100
AcDbEntity
  8
default
  6
Continuous
 62
     1
100
AcDbLine
 10
-127.6333
 20
17.89509999999999
 30
0.0
 11
-128.4096999999999
 21
18.3866
 31
0.0
  0
LINE
  5
5FD
330
1E
100
AcDbEntity
  8
default
  6
Continuous
 62
     1
100
AcDbLine
 10
-128.4096999999999
 20
-18.3866
 30
0.0
 11
-129.1905999999999
 21
-18.87679999999999
 31
0.0
  0
LINE
  5
5FE
330
1E
100
AcDbEntity
  8
default
  6
Continuous
 62
     1
100
AcDbLine
 10
-128.4096999999999
 20
18.3866
 30
0.0
 11
-129.1905999999999
 21
18.87679999999999
 31
0.0
  0
LINE
  5
5FF
330
1E
100
AcDbEntity
  8
default
  6
Continuous
 62
     1
100
AcDbLine
 10
-129.1905999999999
 20
-18.87679999999999
 30
0.0
 11
-129.977
 21
-19.3653
 31
0.0
  0
LINE
  5
600
330
1E
100
AcDbEntity
  8
default
  6
Continuous
 62
     1
100
AcDbLine
 10
-129.1905999999999
 20
18.87679999999999
 30
0.0
 11
-129.977
 21
19.3653
 31
0.0
  0
LINE
  5
601
330
1E
100
AcDbEntity
  8
default
  6
Continuous
 62
     1
100
AcDbLine
 10
-129.977
 20
-19.3653
 30
0.0
 11
-130.77
 21
-19.8516
 31
0.0
  0
LINE
  5
602
330
1E
100
AcDbEntity
  8
default
  6
Continuous
 62
     1
100
AcDbLine
 10
-129.977
 20
19.3653
 30
0.0
 11
-130.77
 21
19.8516
 31
0.0
  0
LINE
  5
603
330
1E
100
AcDbEntity
  8
default
  6
Continuous
 62
     1
100
AcDbLine
 10
-130.77
 20
-19.8516
 30
0.0
 11
-131.5706999999999
 21
-20.3356
 31
0.0
  0
LINE
  5
604
330
1E
100
AcDbEntity
  8
default
  6
Continuous
 62
     1
100
AcDbLine
 10
-130.77
 20
19.8516
 30
0.0
 11
-131.5706999999999
 21
20.3356
 31
0.0
  0
LINE
  5
605
330
1E
100
AcDbEntity
  8
default
  6
Continuous
 62
     1
100
AcDbLine
 10
-131.5706999999999
 20
-20.3356
 30
0.0
 11
-132.3801
 21
-20.8167
 31
0.0
  0
LINE
  5
606
330
1E
100
AcDbEntity
  8
default
  6
Continuous
 62
     1
100
AcDbLine
 10
-131.5706999999999
 20
20.3356
 30
0.0
 11
-132.3801
 21
20.8167
 31
0.0
  0
LINE
  5
607
330
1E
100
AcDbEntity
  8
default
  6
Continuous
 62
     1
100
AcDbLine
 10
-132.3801
 20
-20.8167
 30
0.0
 11
-133.1990999999999
 21
-21.29469999999999
 31
0.0
  0
LINE
  5
608
330
1E
100
AcDbEntity
  8
default
  6
Continuous
 62
     1
100
AcDbLine
 10
-132.3801
 20
20.8167
 30
0.0
 11
-133.1990999999999
 21
21.29469999999999
 31
0.0
  0
LINE
  5
609
330
1E
100
AcDbEntity
  8
default
  6
Continuous
 62
     1
100
AcDbLine
 10
-133.1990999999999
 20
-21.29469999999999
 30
0.0
 11
-134.0286
 21
-21.7692
 31
0.0
  0
LINE
  5
60A
330
1E
100
AcDbEntity
  8
default
  6
Continuous
 62
     1
100
AcDbLine
 10
-133.1990999999999
 20
21.29469999999999
 30
0.0
 11
-134.0286
 21
21.7692
 31
0.0
  0
LINE
  5
60B
330
1E
100
AcDbEntity
  8
default
  6
Continuous
 62
     1
100
AcDbLine
 10
-134.0286
 20
-21.7692
 30
0.0
 11
-134.8694
 21
-22.2398
 31
0.0
  0
LINE
  5
60C
330
1E
100
AcDbEntity
  8
default
  6
Continuous
 62
     1
100
AcDbLine
 10
-134.0286
 20
21.7692
 30
0.0
 11
-134.8694
 21
22.2398
 31
0.0
  0
LINE
  5
60D
330
1E
100
AcDbEntity
  8
default
  6
Continuous
 62
     1
100
AcDbLine
 10
-134.8694
 20
-22.2398
 30
0.0
 11
-135.7221999999999
 21
-22.7062
 31
0.0
  0
LINE
  5
60E
330
1E
100
AcDbEntity
  8
default
  6
Continuous
 62
     1
100
AcDbLine
 10
-134.8694
 20
22.2398
 30
0.0
 11
-135.7221999999999
 21
22.7062
 31
0.0
  0
LINE
  5
60F
330
1E
100
AcDbEntity
  8
default
  6
Continuous
 62
     1
100
AcDbLine
 10
-135.7221999999999
 20
-22.7062
 30
0.0
 11
-136.5877
 21
-23.168
 31
0.0
  0
LINE
  5
610
330
1E
100
AcDbEntity
  8
default
  6
Continuous
 62
     1
100
AcDbLine
 10
-135.7221999999999
 20
22.7062
 30
0.0
 11
-136.5877
 21
23.168
 31
0.0
  0
LINE
  5
611
330
1E
100
AcDbEntity
  8
default
  6
Continuous
 62
     1
100
AcDbLine
 10
-136.5877
 20
-23.168
 30
0.0
 11
-137.4665999999999
 21
-23.625
 31
0.0
  0
LINE
  5
612
330
1E
100
AcDbEntity
  8
default
  6
Continuous
 62
     1
100
AcDbLine
 10
-136.5877
 20
23.168
 30
0.0
 11
-137.4665999999999
 21
23.625
 31
0.0
  0
LINE
  5
613
330
1E
100
AcDbEntity
  8
default
  6
Continuous
 62
     1
100
AcDbLine
 10
-137.4665999999999
 20
-23.625
 30
0.0
 11
-138.3592999999999
 21
-24.07669999999999
 31
0.0
  0
LINE
  5
614
330
1E
100
AcDbEntity
  8
default
  6
Continuous
 62
     1
100
AcDbLine
 10
-137.4665999999999
 20
23.625
 30
0.0
 11
-138.3592999999999
 21
24.07669999999999
 31
0.0
  0
LINE
  5
615
330
1E
100
AcDbEntity
  8
default
  6
Continuous
 62
     1
100
AcDbLine
 10
-138.3592999999999
 20
-24.07669999999999
 30
0.0
 11
-139.2664
 21
-24.5228
 31
0.0
  0
LINE
  5
616
330
1E
100
AcDbEntity
  8
default
  6
Continuous
 62
     1
100
AcDbLine
 10
-138.3592999999999
 20
24.07669999999999
 30
0.0
 11
-139.2664
 21
24.5228
 31
0.0
  0
LINE
  5
617
330
1E
100
AcDbEntity
  8
default
  6
Continuous
 62
     1
100
AcDbLine
 10
-139.2664
 20
-24.5228
 30
0.0
 11
-140.1882999999999
 21
-24.9631
 31
0.0
  0
LINE
  5
618
330
1E
100
AcDbEntity
  8
default
  6
Continuous
 62
     1
100
AcDbLine
 10
-139.2664
 20
24.5228
 30
0.0
 11
-140.1882999999999
 21
24.9631
 31
0.0
  0
LINE
  5
619
330
1E
100
AcDbEntity
  8
default
  6
Continuous
 62
     1
100
AcDbLine
 10
-140.1882999999999
 20
-24.9631
 30
0.0
 11
-141.1253
 21
-25.39709999999999
 31
0.0
  0
LINE
  5
61A
330
1E
100
AcDbEntity
  8
default
  6
Continuous
 62
     1
100
AcDbLine
 10
-140.1882999999999
 20
24.9631
 30
0.0
 11
-141.1253
 21
25.39709999999999
 31
0.0
  0
LINE
  5
61B
330
1E
100
AcDbEntity
  8
default
  6
Continuous
 62
     1
100
AcDbLine
 10
-141.1253
 20
-25.39709999999999
 30
0.0
 11
-142.0778
 21
-25.8246
 31
0.0
  0
LINE
  5
61C
330
1E
100
AcDbEntity
  8
default
  6
Continuous
 62
     1
100
AcDbLine
 10
-141.1253
 20
25.39709999999999
 30
0.0
 11
-142.0778
 21
25.8246
 31
0.0
  0
LINE
  5
61D
330
1E
100
AcDbEntity
  8
default
  6
Continuous
 62
     1
100
AcDbLine
 10
-142.0778
 20
-25.8246
 30
0.0
 11
-143.0458999999999
 21
-26.2452
 31
0.0
  0
LINE
  5
61E
330
1E
100
AcDbEntity
  8
default
  6
Continuous
 62
     1
100
AcDbLine
 10
-142.0778
 20
25.8246
 30
0.0
 11
-143.0458999999999
 21
26.2452
 31
0.0
  0
LINE
  5
61F
330
1E
100
AcDbEntity
  8
default
  6
Continuous
 62
     1
100
AcDbLine
 10
-143.0458999999999
 20
-26.2452
 30
0.0
 11
-144.0298999999999
 21
-26.6586
 31
0.0
  0
LINE
  5
620
330
1E
100
AcDbEntity
  8
default
  6
Continuous
 62
     1
100
AcDbLine
 10
-143.0458999999999
 20
26.2452
 30
0.0
 11
-144.0298999999999
 21
26.6586
 31
0.0
  0
LINE
  5
621
330
1E
100
AcDbEntity
  8
default
  6
Continuous
 62
     1
100
AcDbLine
 10
-144.0298999999999
 20
-26.6586
 30
0.0
 11
-145.0297999999999
 21
-27.0645
 31
0.0
  0
LINE
  5
622
330
1E
100
AcDbEntity
  8
default
  6
Continuous
 62
     1
100
AcDbLine
 10
-144.0298999999999
 20
26.6586
 30
0.0
 11
-145.0297999999999
 21
27.0645
 31
0.0
  0
LINE
  5
623
330
1E
100
AcDbEntity
  8
default
  6
Continuous
 62
     1
100
AcDbLine
 10
-145.0297999999999
 20
-27.0645
 30
0.0
 11
-146.0458
 21
-27.4627
 31
0.0
  0
LINE
  5
624
330
1E
100
AcDbEntity
  8
default
  6
Continuous
 62
     1
100
AcDbLine
 10
-145.0297999999999
 20
27.0645
 30
0.0
 11
-146.0458
 21
27.4627
 31
0.0
  0
LINE
  5
625
330
1E
100
AcDbEntity
  8
default
  6
Continuous
 62
     1
100
AcDbLine
 10
-146.0458
 20
-27.4627
 30
0.0
 11
-147.0777999999999
 21
-27.8528
 31
0.0
  0
LINE
  5
626
330
1E
100
AcDbEntity
  8
default
  6
Continuous
 62
     1
100
AcDbLine
 10
-146.0458
 20
27.4627
 30
0.0
 11
-147.0777999999999
 21
27.8528
 31
0.0
  0
LINE
  5
627
330
1E
100
AcDbEntity
  8
default
  6
Continuous
 62
     1
100
AcDbLine
 10
-147.0777999999999
 20
-27.8528
 30
0.0
 11
-148.1259
 21
-28.2345
 31
0.0
  0
LINE
  5
628
330
1E
100
AcDbEntity
  8
default
  6
Continuous
 62
     1
100
AcDbLine
 10
-147.0777999999999
 20
27.8528
 30
0.0
 11
-148.1259
 21
28.2345
 31
0.0
  0
LINE
  5
629
330
1E
100
AcDbEntity
  8
default
  6
Continuous
 62
     1
100
AcDbLine
 10
-148.1259
 20
-28.2345
 30
0.0
 11
-149.19
 21
-28.6075
 31
0.0
  0
LINE
  5
62A
330
1E
100
AcDbEntity
  8
default
  6
Continuous
 62
     1
100
AcDbLine
 10
-148.1259
 20
28.2345
 30
0.0
 11
-149.19
 21
28.6075
 31
0.0
  0
LINE
  5
62B
330
1E
100
AcDbEntity
  8
default
  6
Continuous
 62
     1
100
AcDbLine
 10
-149.19
 20
-28.6075
 30
0.0
 11
-150.2698999999999
 21
-28.9717
 31
0.0
  0
LINE
  5
62C
330
1E
100
AcDbEntity
  8
default
  6
Continuous
 62
     1
100
AcDbLine
 10
-149.19
 20
28.6075
 30
0.0
 11
-150.2698999999999
 21
28.9717
 31
0.0
  0
LINE
  5
62D
330
1E
100
AcDbEntity
  8
default
  6
Continuous
 62
     1
100
AcDbLine
 10
-150.2698999999999
 20
-28.9717
 30
0.0
 11
-151.3654999999999
 21
-29.3266
 31
0.0
  0
LINE
  5
62E
330
1E
100
AcDbEntity
  8
default
  6
Continuous
 62
     1
100
AcDbLine
 10
-150.2698999999999
 20
28.9717
 30
0.0
 11
-151.3654999999999
 21
29.3266
 31
0.0
  0
LINE
  5
62F
330
1E
100
AcDbEntity
  8
default
  6
Continuous
 62
     1
100
AcDbLine
 10
-151.3654999999999
 20
-29.3266
 30
0.0
 11
-152.4766999999999
 21
-29.6721
 31
0.0
  0
LINE
  5
630
330
1E
100
AcDbEntity
  8
default
  6
Continuous
 62
     1
100
AcDbLine
 10
-151.3654999999999
 20
29.3266
 30
0.0
 11
-152.4766999999999
 21
29.6721
 31
0.0
  0
LINE
  5
631
330
1E
100
AcDbEntity
  8
default
  6
Continuous
 62
     1
100
AcDbLine
 10
-152.4766999999999
 20
-29.6721
 30
0.0
 11
-153.6031
 21
-30.0079
 31
0.0
  0
LINE
  5
632
330
1E
100
AcDbEntity
  8
default
  6
Continuous
 62
     1
100
AcDbLine
 10
-152.4766999999999
 20
29.6721
 30
0.0
 11
-153.6031
 21
30.0079
 31
0.0
  0
LINE
  5
633
330
1E
100
AcDbEntity
  8
default
  6
Continuous
 62
     1
100
AcDbLine
 10
-153.6031
 20
-30.0079
 30
0.0
 11
-154.7445999999999
 21
-30.3337
 31
0.0
  0
LINE
  5
634
330
1E
100
AcDbEntity
  8
default
  6
Continuous
 62
     1
100
AcDbLine
 10
-153.6031
 20
30.0079
 30
0.0
 11
-154.7445999999999
 21
30.3337
 31
0.0
  0
LINE
  5
635
330
1E
100
AcDbEntity
  8
default
  6
Continuous
 62
     1
100
AcDbLine
 10
-154.7445999999999
 20
-30.3337
 30
0.0
 11
-155.9008
 21
-30.6493
 31
0.0
  0
LINE
  5
636
330
1E
100
AcDbEntity
  8
default
  6
Continuous
 62
     1
100
AcDbLine
 10
-154.7445999999999
 20
30.3337
 30
0.0
 11
-155.9008
 21
30.6493
 31
0.0
  0
LINE
  5
637
330
1E
100
AcDbEntity
  8
default
  6
Continuous
 62
     1
100
AcDbLine
 10
-155.9008
 20
-30.6493
 30
0.0
 11
-157.0713
 21
-30.95439999999999
 31
0.0
  0
LINE
  5
638
330
1E
100
AcDbEntity
  8
default
  6
Continuous
 62
     1
100
AcDbLine
 10
-155.9008
 20
30.6493
 30
0.0
 11
-157.0713
 21
30.95439999999999
 31
0.0
  0
LINE
  5
639
330
1E
100
AcDbEntity
  8
default
  6
Continuous
 62
     1
100
AcDbLine
 10
-157.0713
 20
-30.95439999999999
 30
0.0
 11
-158.2559
 21
-31.2489
 31
0.0
  0
LINE
  5
63A
330
1E
100
AcDbEntity
  8
default
  6
Continuous
 62
     1
100
AcDbLine
 10
-157.0713
 20
30.95439999999999
 30
0.0
 11
-158.2559
 21
31.2489
 31
0.0
  0
LINE
  5
63B
330
1E
100
AcDbEntity
  8
default
  6
Continuous
 62
     1
100
AcDbLine
 10
-158.2559
 20
-31.2489
 30
0.0
 11
-159.4541999999999
 21
-31.53249999999999
 31
0.0
  0
LINE
  5
63C
330
1E
100
AcDbEntity
  8
default
  6
Continuous
 62
     1
100
AcDbLine
 10
-158.2559
 20
31.2489
 30
0.0
 11
-159.4541999999999
 21
31.53249999999999
 31
0.0
  0
LINE
  5
63D
330
1E
100
AcDbEntity
  8
default
  6
Continuous
 62
     1
100
AcDbLine
 10
-159.4541999999999
 20
-31.53249999999999
 30
0.0
 11
-160.6657
 21
-31.805
 31
0.0
  0
LINE
  5
63E
330
1E
100
AcDbEntity
  8
default
  6
Continuous
 62
     1
100
AcDbLine
 10
-159.4541999999999
 20
31.53249999999999
 30
0.0
 11
-160.6657
 21
31.805
 31
0.0
  0
LINE
  5
63F
330
1E
100
AcDbEntity
  8
default
  6
Continuous
 62
     1
100
AcDbLine
 10
-160.6657
 20
-31.805
 30
0.0
 11
-161.8899
 21
-32.0663
 31
0.0
  0
LINE
  5
640
330
1E
100
AcDbEntity
  8
default
  6
Continuous
 62
     1
100
AcDbLine
 10
-160.6657
 20
31.805
 30
0.0
 11
-161.8899
 21
32.0663
 31
0.0
  0
LINE
  5
641
330
1E
100
AcDbEntity
  8
default
  6
Continuous
 62
     1
100
AcDbLine
 10
-161.8899
 20
-32.0663
 30
0.0
 11
-163.1264999999999
 21
-32.316
 31
0.0
  0
LINE
  5
642
330
1E
100
AcDbEntity
  8
default
  6
Continuous
 62
     1
100
AcDbLine
 10
-161.8899
 20
32.0663
 30
0.0
 11
-163.1264999999999
 21
32.316
 31
0.0
  0
LINE
  5
643
330
1E
100
AcDbEntity
  8
default
  6
Continuous
 62
     1
100
AcDbLine
 10
-163.1264999999999
 20
-32.316
 30
0.0
 11
-164.375
 21
-32.55409999999999
 31
0.0
  0
LINE
  5
644
330
1E
100
AcDbEntity
  8
default
  6
Continuous
 62
     1
100
AcDbLine
 10
-163.1264999999999
 20
32.316
 30
0.0
 11
-164.375
 21
32.55409999999999
 31
0.0
  0
LINE
  5
645
330
1E
100
AcDbEntity
  8
default
  6
Continuous
 62
     1
100
AcDbLine
 10
-164.375
 20
-32.55409999999999
 30
0.0
 11
-165.6348
 21
-32.78029999999999
 31
0.0
  0
LINE
  5
646
330
1E
100
AcDbEntity
  8
default
  6
Continuous
 62
     1
100
AcDbLine
 10
-164.375
 20
32.55409999999999
 30
0.0
 11
-165.6348
 21
32.78029999999999
 31
0.0
  0
LINE
  5
647
330
1E
100
AcDbEntity
  8
default
  6
Continuous
 62
     1
100
AcDbLine
 10
-165.6348
 20
-32.78029999999999
 30
0.0
 11
-166.9053
 21
-32.9945
 31
0.0
  0
LINE
  5
648
330
1E
100
AcDbEntity
  8
default
  6
Continuous
 62
     1
100
AcDbLine
 10
-165.6348
 20
32.78029999999999
 30
0.0
 11
-166.9053
 21
32.9945
 31
0.0
  0
LINE
  5
649
330
1E
100
AcDbEntity
  8
default
  6
Continuous
 62
     1
100
AcDbLine
 10
-166.9053
 20
-32.9945
 30
0.0
 11
-168.1862
 21
-33.1965
 31
0.0
  0
LINE
  5
64A
330
1E
100
AcDbEntity
  8
default
  6
Continuous
 62
     1
100
AcDbLine
 10
-166.9053
 20
32.9945
 30
0.0
 11
-168.1862
 21
33.1965
 31
0.0
  0
LINE
  5
64B
330
1E
100
AcDbEntity
  8
default
  6
Continuous
 62
     1
100
AcDbLine
 10
-168.1862
 20
-33.1965
 30
0.0
 11
-169.4766999999999
 21
-33.3862
 31
0.0
  0
LINE
  5
64C
330
1E
100
AcDbEntity
  8
default
  6
Continuous
 62
     1
100
AcDbLine
 10
-168.1862
 20
33.1965
 30
0.0
 11
-169.4766999999999
 21
33.3862
 31
0.0
  0
LINE
  5
64D
330
1E
100
AcDbEntity
  8
default
  6
Continuous
 62
     1
100
AcDbLine
 10
-169.4766999999999
 20
-33.3862
 30
0.0
 11
-170.7764
 21
-33.56349999999999
 31
0.0
  0
LINE
  5
64E
330
1E
100
AcDbEntity
  8
default
  6
Continuous
 62
     1
100
AcDbLine
 10
-169.4766999999999
 20
33.3862
 30
0.0
 11
-170.7764
 21
33.56349999999999
 31
0.0
  0
LINE
  5
64F
330
1E
100
AcDbEntity
  8
default
  6
Continuous
 62
     1
100
AcDbLine
 10
-170.7764
 20
-33.56349999999999
 30
0.0
 11
-172.0845999999999
 21
-33.72809999999999
 31
0.0
  0
LINE
  5
650
330
1E
100
AcDbEntity
  8
default
  6
Continuous
 62
     1
100
AcDbLine
 10
-170.7764
 20
33.56349999999999
 30
0.0
 11
-172.0845999999999
 21
33.72809999999999
 31
0.0
  0
LINE
  5
651
330
1E
100
AcDbEntity
  8
default
  6
Continuous
 62
     1
100
AcDbLine
 10
-172.0845999999999
 20
-33.72809999999999
 30
0.0
 11
-173.4008
 21
-33.88
 31
0.0
  0
LINE
  5
652
330
1E
100
AcDbEntity
  8
default
  6
Continuous
 62
     1
100
AcDbLine
 10
-172.0845999999999
 20
33.72809999999999
 30
0.0
 11
-173.4008
 21
33.88
 31
0.0
  0
LINE
  5
653
330
1E
100
AcDbEntity
  8
default
  6
Continuous
 62
     1
100
AcDbLine
 10
-173.4008
 20
-33.88
 30
0.0
 11
-174.7241999999999
 21
-34.0191
 31
0.0
  0
LINE
  5
654
330
1E
100
AcDbEntity
  8
default
  6
Continuous
 62
     1
100
AcDbLine
 10
-173.4008
 20
33.88
 30
0.0
 11
-174.7241999999999
 21
34.0191
 31
0.0
  0
LINE
  5
655
330
1E
100
AcDbEntity
  8
default
  6
Continuous
 62
     1
100
AcDbLine
 10
-174.7241999999999
 20
-34.0191
 30
0.0
 11
-176.0543
 21
-34.1453
 31
0.0
  0
LINE
  5
656
330
1E
100
AcDbEntity
  8
default
  6
Continuous
 62
     1
100
AcDbLine
 10
-174.7241999999999
 20
34.0191
 30
0.0
 11
-176.0543
 21
34.1453
 31
0.0
  0
LINE
  5
657
330
1E
100
AcDbEntity
  8
default
  6
Continuous
 62
     1
100
AcDbLine
 10
-176.0543
 20
-34.1453
 30
0.0
 11
-177.3905
 21
-34.2584
 31
0.0
  0
LINE
  5
658
330
1E
100
AcDbEntity
  8
default
  6
Continuous
 62
     1
100
AcDbLine
 10
-176.0543
 20
34.1453
 30
0.0
 11
-177.3905
 21
34.2584
 31
0.0
  0
LINE
  5
659
330
1E
100
AcDbEntity
  8
default
  6
Continuous
 62
     1
100
AcDbLine
 10
-177.3905
 20
-34.2584
 30
0.0
 11
-178.7321
 21
-34.3584
 31
0.0
  0
LINE
  5
65A
330
1E
100
AcDbEntity
  8
default
  6
Continuous
 62
     1
100
AcDbLine
 10
-177.3905
 20
34.2584
 30
0.0
 11
-178.7321
 21
34.3584
 31
0.0
  0
LINE
  5
65B
330
1E
100
AcDbEntity
  8
default
  6
Continuous
 62
     1
100
AcDbLine
 10
-178.7321
 20
-34.3584
 30
0.0
 11
-180.0783999999999
 21
-34.4452
 31
0.0
  0
LINE
  5
65C
330
1E
100
AcDbEntity
  8
default
  6
Continuous
 62
     1
100
AcDbLine
 10
-178.7321
 20
34.3584
 30
0.0
 11
-180.0783999999999
 21
34.4452
 31
0.0
  0
LINE
  5
65D
330
1E
100
AcDbEntity
  8
default
  6
Continuous
 62
     1
100
AcDbLine
 10
-180.0783999999999
 20
-34.4452
 30
0.0
 11
-181.4287999999999
 21
-34.5188
 31
0.0
  0
LINE
  5
65E
330
1E
100
AcDbEntity
  8
default
  6
Continuous
 62
     1
100
AcDbLine
 10
-180.0783999999999
 20
34.4452
 30
0.0
 11
-181.4287999999999
 21
34.5188
 31
0.0
  0
LINE
  5
65F
330
1E
100
AcDbEntity
  8
default
  6
Continuous
 62
     1
100
AcDbLine
 10
-181.4287999999999
 20
-34.5188
 30
0.0
 11
-182.7824999999999
 21
-34.5791
 31
0.0
  0
LINE
  5
660
330
1E
100
AcDbEntity
  8
default
  6
Continuous
 62
     1
100
AcDbLine
 10
-181.4287999999999
 20
34.5188
 30
0.0
 11
-182.7824999999999
 21
34.5791
 31
0.0
  0
LINE
  5
661
330
1E
100
AcDbEntity
  8
default
  6
Continuous
 62
     1
100
AcDbLine
 10
-182.7824999999999
 20
-34.5791
 30
0.0
 11
-184.1391
 21
-34.626
 31
0.0
  0
LINE
  5
662
330
1E
100
AcDbEntity
  8
default
  6
Continuous
 62
     1
100
AcDbLine
 10
-182.7824999999999
 20
34.5791
 30
0.0
 11
-184.1391
 21
34.626
 31
0.0
  0
LINE
  5
663
330
1E
100
AcDbEntity
  8
default
  6
Continuous
 62
     1
100
AcDbLine
 10
-184.1391
 20
-34.626
 30
0.0
 11
-185.4976
 21
-34.65959999999999
 31
0.0
  0
LINE
  5
664
330
1E
100
AcDbEntity
  8
default
  6
Continuous
 62
     1
100
AcDbLine
 10
-184.1391
 20
34.626
 30
0.0
 11
-185.4976
 21
34.65959999999999
 31
0.0
  0
LINE
  5
665
330
1E
100
AcDbEntity
  8
default
  6
Continuous
 62
     1
100
AcDbLine
 10
-185.4976
 20
-34.65959999999999
 30
0.0
 11
-186.8574999999999
 21
-34.67969999999999
 31
0.0
  0
LINE
  5
666
330
1E
100
AcDbEntity
  8
default
  6
Continuous
 62
     1
100
AcDbLine
 10
-185.4976
 20
34.65959999999999
 30
0.0
 11
-186.8574999999999
 21
34.67969999999999
 31
0.0
  0
LINE
  5
667
330
1E
100
AcDbEntity
  8
default
  6
Continuous
 62
     1
100
AcDbLine
 10
-186.8574999999999
 20
-34.67969999999999
 30
0.0
 11
-188.2182
 21
-34.6864
 31
0.0
  0
LINE
  5
668
330
1E
100
AcDbEntity
  8
default
  6
Continuous
 62
     1
100
AcDbLine
 10
-186.8574999999999
 20
34.67969999999999
 30
0.0
 11
-188.2182
 21
34.6864
 31
0.0
  0
LINE
  5
669
330
1E
100
AcDbEntity
  8
default
  6
Continuous
 62
     1
100
AcDbLine
 10
-188.2182
 20
-34.6864
 30
0.0
 11
-188.2182
 21
34.6864
 31
0.0
  0
LINE
  5
66A
330
1E
100
AcDbEntity
  8
default
  6
Continuous
 62
     1
100
AcDbLine
 10
-56.5685
 20
-56.5685
 30
0.0
 11
-57.3995
 21
-57.6927
 31
0.0
  0
LINE
  5
66B
330
1E
100
AcDbEntity
  8
default
  6
Continuous
 62
     1
100
AcDbLine
 10
-56.5685
 20
-56.5685
 30
0.0
 11
-57.6927
 21
-57.3995
 31
0.0
  0
LINE
  5
66C
330
1E
100
AcDbEntity
  8
default
  6
Continuous
 62
     1
100
AcDbLine
 10
-57.3995
 20
-57.6927
 30
0.0
 11
-58.2175
 21
-58.8211
 31
0.0
  0
LINE
  5
66D
330
1E
100
AcDbEntity
  8
default
  6
Continuous
 62
     1
100
AcDbLine
 10
-57.6927
 20
-57.3995
 30
0.0
 11
-58.8211
 21
-58.2175
 31
0.0
  0
LINE
  5
66E
330
1E
100
AcDbEntity
  8
default
  6
Continuous
 62
     1
100
AcDbLine
 10
-58.2175
 20
-58.8211
 30
0.0
 11
-59.0219
 21
-59.95280000000001
 31
0.0
  0
LINE
  5
66F
330
1E
100
AcDbEntity
  8
default
  6
Continuous
 62
     1
100
AcDbLine
 10
-58.8211
 20
-58.2175
 30
0.0
 11
-59.95280000000001
 21
-59.0219
 31
0.0
  0
LINE
  5
670
330
1E
100
AcDbEntity
  8
default
  6
Continuous
 62
     1
100
AcDbLine
 10
-59.0219
 20
-59.95280000000001
 30
0.0
 11
-59.8123
 21
-61.0871
 31
0.0
  0
LINE
  5
671
330
1E
100
AcDbEntity
  8
default
  6
Continuous
 62
     1
100
AcDbLine
 10
-59.95280000000001
 20
-59.0219
 30
0.0
 11
-61.0871
 21
-59.8123
 31
0.0
  0
LINE
  5
672
330
1E
100
AcDbEntity
  8
default
  6
Continuous
 62
     1
100
AcDbLine
 10
-59.8123
 20
-61.0871
 30
0.0
 11
-60.5881
 21
-62.22319999999999
 31
0.0
  0
LINE
  5
673
330
1E
100
AcDbEntity
  8
default
  6
Continuous
 62
     1
100
AcDbLine
 10
-61.0871
 20
-59.8123
 30
0.0
 11
-62.22319999999999
 21
-60.5881
 31
0.0
  0
LINE
  5
674
330
1E
100
AcDbEntity
  8
default
  6
Continuous
 62
     1
100
AcDbLine
 10
-60.5881
 20
-62.22319999999999
 30
0.0
 11
-61.34879999999999
 21
-63.3603
 31
0.0
  0
LINE
  5
675
330
1E
100
AcDbEntity
  8
default
  6
Continuous
 62
     1
100
AcDbLine
 10
-62.22319999999999
 20
-60.5881
 30
0.0
 11
-63.3603
 21
-61.34879999999999
 31
0.0
  0
LINE
  5
676
330
1E
100
AcDbEntity
  8
default
  6
Continuous
 62
     1
100
AcDbLine
 10
-61.34879999999999
 20
-63.3603
 30
0.0
 11
-62.0938
 21
-64.4977
 31
0.0
  0
LINE
  5
677
330
1E
100
AcDbEntity
  8
default
  6
Continuous
 62
     1
100
AcDbLine
 10
-63.3603
 20
-61.34879999999999
 30
0.0
 11
-64.4977
 21
-62.0938
 31
0.0
  0
LINE
  5
678
330
1E
100
AcDbEntity
  8
default
  6
Continuous
 62
     1
100
AcDbLine
 10
-62.0938
 20
-64.4977
 30
0.0
 11
-62.8228
 21
-65.6345
 31
0.0
  0
LINE
  5
679
330
1E
100
AcDbEntity
  8
default
  6
Continuous
 62
     1
100
AcDbLine
 10
-64.4977
 20
-62.0938
 30
0.0
 11
-65.6345
 21
-62.8228
 31
0.0
  0
LINE
  5
67A
330
1E
100
AcDbEntity
  8
default
  6
Continuous
 62
     1
100
AcDbLine
 10
-62.8228
 20
-65.6345
 30
0.0
 11
-63.53509999999999
 21
-66.76999999999999
 31
0.0
  0
LINE
  5
67B
330
1E
100
AcDbEntity
  8
default
  6
Continuous
 62
     1
100
AcDbLine
 10
-65.6345
 20
-62.8228
 30
0.0
 11
-66.76999999999999
 21
-63.53509999999999
 31
0.0
  0
LINE
  5
67C
330
1E
100
AcDbEntity
  8
default
  6
Continuous
 62
     1
100
AcDbLine
 10
-63.53509999999999
 20
-66.76999999999999
 30
0.0
 11
-64.2305
 21
-67.9034
 31
0.0
  0
LINE
  5
67D
330
1E
100
AcDbEntity
  8
default
  6
Continuous
 62
     1
100
AcDbLine
 10
-66.76999999999999
 20
-63.53509999999999
 30
0.0
 11
-67.9034
 21
-64.2305
 31
0.0
  0
LINE
  5
67E
330
1E
100
AcDbEntity
  8
default
  6
Continuous
 62
     1
100
AcDbLine
 10
-64.2305
 20
-67.9034
 30
0.0
 11
-64.9084
 21
-69.0339
 31
0.0
  0
LINE
  5
67F
330
1E
100
AcDbEntity
  8
default
  6
Continuous
 62
     1
100
AcDbLine
 10
-67.9034
 20
-64.2305
 30
0.0
 11
-69.0339
 21
-64.9084
 31
0.0
  0
LINE
  5
680
330
1E
100
AcDbEntity
  8
default
  6
Continuous
 62
     1
100
AcDbLine
 10
-64.9084
 20
-69.0339
 30
0.0
 11
-65.5684
 21
-70.161
 31
0.0
  0
LINE
  5
681
330
1E
100
AcDbEntity
  8
default
  6
Continuous
 62
     1
100
AcDbLine
 10
-69.0339
 20
-64.9084
 30
0.0
 11
-70.161
 21
-65.5684
 31
0.0
  0
LINE
  5
682
330
1E
100
AcDbEntity
  8
default
  6
Continuous
 62
     1
100
AcDbLine
 10
-65.5684
 20
-70.161
 30
0.0
 11
-66.21030000000001
 21
-71.2837
 31
0.0
  0
LINE
  5
683
330
1E
100
AcDbEntity
  8
default
  6
Continuous
 62
     1
100
AcDbLine
 10
-70.161
 20
-65.5684
 30
0.0
 11
-71.2837
 21
-66.21030000000001
 31
0.0
  0
LINE
  5
684
330
1E
100
AcDbEntity
  8
default
  6
Continuous
 62
     1
100
AcDbLine
 10
-66.21030000000001
 20
-71.2837
 30
0.0
 11
-66.8336
 21
-72.4014
 31
0.0
  0
LINE
  5
685
330
1E
100
AcDbEntity
  8
default
  6
Continuous
 62
     1
100
AcDbLine
 10
-71.2837
 20
-66.21030000000001
 30
0.0
 11
-72.4014
 21
-66.8336
 31
0.0
  0
LINE
  5
686
330
1E
100
AcDbEntity
  8
default
  6
Continuous
 62
     1
100
AcDbLine
 10
-66.8336
 20
-72.4014
 30
0.0
 11
-67.438
 21
-73.51359999999999
 31
0.0
  0
LINE
  5
687
330
1E
100
AcDbEntity
  8
default
  6
Continuous
 62
     1
100
AcDbLine
 10
-72.4014
 20
-66.8336
 30
0.0
 11
-73.51359999999999
 21
-67.438
 31
0.0
  0
LINE
  5
688
330
1E
100
AcDbEntity
  8
default
  6
Continuous
 62
     1
100
AcDbLine
 10
-67.438
 20
-73.51359999999999
 30
0.0
 11
-68.02330000000001
 21
-74.6194
 31
0.0
  0
LINE
  5
689
330
1E
100
AcDbEntity
  8
default
  6
Continuous
 62
     1
100
AcDbLine
 10
-73.51359999999999
 20
-67.438
 30
0.0
 11
-74.6194
 21
-68.02330000000001
 31
0.0
  0
LINE
  5
68A
330
1E
100
AcDbEntity
  8
default
  6
Continuous
 62
     1
100
AcDbLine
 10
-68.02330000000001
 20
-74.6194
 30
0.0
 11
-68.58920000000001
 21
-75.7183
 31
0.0
  0
LINE
  5
68B
330
1E
100
AcDbEntity
  8
default
  6
Continuous
 62
     1
100
AcDbLine
 10
-74.6194
 20
-68.02330000000001
 30
0.0
 11
-75.7183
 21
-68.58920000000001
 31
0.0
  0
LINE
  5
68C
330
1E
100
AcDbEntity
  8
default
  6
Continuous
 62
     1
100
AcDbLine
 10
-68.58920000000001
 20
-75.7183
 30
0.0
 11
-69.1356
 21
-76.80970000000001
 31
0.0
  0
LINE
  5
68D
330
1E
100
AcDbEntity
  8
default
  6
Continuous
 62
     1
100
AcDbLine
 10
-75.7183
 20
-68.58920000000001
 30
0.0
 11
-76.80970000000001
 21
-69.1356
 31
0.0
  0
LINE
  5
68E
330
1E
100
AcDbEntity
  8
default
  6
Continuous
 62
     1
100
AcDbLine
 10
-69.1356
 20
-76.80970000000001
 30
0.0
 11
-69.66219999999999
 21
-77.893
 31
0.0
  0
LINE
  5
68F
330
1E
100
AcDbEntity
  8
default
  6
Continuous
 62
     1
100
AcDbLine
 10
-76.80970000000001
 20
-69.1356
 30
0.0
 11
-77.893
 21
-69.66219999999999
 31
0.0
  0
LINE
  5
690
330
1E
100
AcDbEntity
  8
default
  6
Continuous
 62
     1
100
AcDbLine
 10
-69.66219999999999
 20
-77.893
 30
0.0
 11
-70.1691
 21
-78.96779999999999
 31
0.0
  0
LINE
  5
691
330
1E
100
AcDbEntity
  8
default
  6
Continuous
 62
     1
100
AcDbLine
 10
-77.893
 20
-69.66219999999999
 30
0.0
 11
-78.96779999999999
 21
-70.1691
 31
0.0
  0
LINE
  5
692
330
1E
100
AcDbEntity
  8
default
  6
Continuous
 62
     1
100
AcDbLine
 10
-70.1691
 20
-78.96779999999999
 30
0.0
 11
-70.65609999999999
 21
-80.0336
 31
0.0
  0
LINE
  5
693
330
1E
100
AcDbEntity
  8
default
  6
Continuous
 62
     1
100
AcDbLine
 10
-78.96779999999999
 20
-70.1691
 30
0.0
 11
-80.0336
 21
-70.65609999999999
 31
0.0
  0
LINE
  5
694
330
1E
100
AcDbEntity
  8
default
  6
Continuous
 62
     1
100
AcDbLine
 10
-70.65609999999999
 20
-80.0336
 30
0.0
 11
-71.1233
 21
-81.08999999999999
 31
0.0
  0
LINE
  5
695
330
1E
100
AcDbEntity
  8
default
  6
Continuous
 62
     1
100
AcDbLine
 10
-80.0336
 20
-70.65609999999999
 30
0.0
 11
-81.08999999999999
 21
-71.1233
 31
0.0
  0
LINE
  5
696
330
1E
100
AcDbEntity
  8
default
  6
Continuous
 62
     1
100
AcDbLine
 10
-71.1233
 20
-81.08999999999999
 30
0.0
 11
-71.5708
 21
-82.1366
 31
0.0
  0
LINE
  5
697
330
1E
100
AcDbEntity
  8
default
  6
Continuous
 62
     1
100
AcDbLine
 10
-81.08999999999999
 20
-71.1233
 30
0.0
 11
-82.1366
 21
-71.5708
 31
0.0
  0
LINE
  5
698
330
1E
100
AcDbEntity
  8
default
  6
Continuous
 62
     1
100
AcDbLine
 10
-71.5708
 20
-82.1366
 30
0.0
 11
-71.9987
 21
-83.1731
 31
0.0
  0
LINE
  5
699
330
1E
100
AcDbEntity
  8
default
  6
Continuous
 62
     1
100
AcDbLine
 10
-82.1366
 20
-71.5708
 30
0.0
 11
-83.1731
 21
-71.9987
 31
0.0
  0
LINE
  5
69A
330
1E
100
AcDbEntity
  8
default
  6
Continuous
 62
     1
100
AcDbLine
 10
-71.9987
 20
-83.1731
 30
0.0
 11
-72.40709999999999
 21
-84.19920000000001
 31
0.0
  0
LINE
  5
69B
330
1E
100
AcDbEntity
  8
default
  6
Continuous
 62
     1
100
AcDbLine
 10
-83.1731
 20
-71.9987
 30
0.0
 11
-84.19920000000001
 21
-72.40709999999999
 31
0.0
  0
LINE
  5
69C
330
1E
100
AcDbEntity
  8
default
  6
Continuous
 62
     1
100
AcDbLine
 10
-72.40709999999999
 20
-84.19920000000001
 30
0.0
 11
-72.7965
 21
-85.2149
 31
0.0
  0
LINE
  5
69D
330
1E
100
AcDbEntity
  8
default
  6
Continuous
 62
     1
100
AcDbLine
 10
-84.19920000000001
 20
-72.40709999999999
 30
0.0
 11
-85.2149
 21
-72.7965
 31
0.0
  0
LINE
  5
69E
330
1E
100
AcDbEntity
  8
default
  6
Continuous
 62
     1
100
AcDbLine
 10
-72.7965
 20
-85.2149
 30
0.0
 11
-73.1671
 21
-86.2199
 31
0.0
  0
LINE
  5
69F
330
1E
100
AcDbEntity
  8
default
  6
Continuous
 62
     1
100
AcDbLine
 10
-85.2149
 20
-72.7965
 30
0.0
 11
-86.2199
 21
-73.1671
 31
0.0
  0
LINE
  5
6A0
330
1E
100
AcDbEntity
  8
default
  6
Continuous
 62
     1
100
AcDbLine
 10
-73.1671
 20
-86.2199
 30
0.0
 11
-73.5194
 21
-87.21439999999999
 31
0.0
  0
LINE
  5
6A1
330
1E
100
AcDbEntity
  8
default
  6
Continuous
 62
     1
100
AcDbLine
 10
-86.2199
 20
-73.1671
 30
0.0
 11
-87.21439999999999
 21
-73.5194
 31
0.0
  0
LINE
  5
6A2
330
1E
100
AcDbEntity
  8
default
  6
Continuous
 62
     1
100
AcDbLine
 10
-73.5194
 20
-87.21439999999999
 30
0.0
 11
-73.854
 21
-88.19819999999999
 31
0.0
  0
LINE
  5
6A3
330
1E
100
AcDbEntity
  8
default
  6
Continuous
 62
     1
100
AcDbLine
 10
-87.21439999999999
 20
-73.5194
 30
0.0
 11
-88.19819999999999
 21
-73.854
 31
0.0
  0
LINE
  5
6A4
330
1E
100
AcDbEntity
  8
default
  6
Continuous
 62
     1
100
AcDbLine
 10
-73.854
 20
-88.19819999999999
 30
0.0
 11
-74.1714
 21
-89.1717
 31
0.0
  0
LINE
  5
6A5
330
1E
100
AcDbEntity
  8
default
  6
Continuous
 62
     1
100
AcDbLine
 10
-88.19819999999999
 20
-73.854
 30
0.0
 11
-89.1717
 21
-74.1714
 31
0.0
  0
LINE
  5
6A6
330
1E
100
AcDbEntity
  8
default
  6
Continuous
 62
     1
100
AcDbLine
 10
-74.1714
 20
-89.1717
 30
0.0
 11
-74.47239999999999
 21
-90.1349
 31
0.0
  0
LINE
  5
6A7
330
1E
100
AcDbEntity
  8
default
  6
Continuous
 62
     1
100
AcDbLine
 10
-89.1717
 20
-74.1714
 30
0.0
 11
-90.1349
 21
-74.47239999999999
 31
0.0
  0
LINE
  5
6A8
330
1E
100
AcDbEntity
  8
default
  6
Continuous
 62
     1
100
AcDbLine
 10
-74.47239999999999
 20
-90.1349
 30
0.0
 11
-74.7577
 21
-91.08830000000001
 31
0.0
  0
LINE
  5
6A9
330
1E
100
AcDbEntity
  8
default
  6
Continuous
 62
     1
100
AcDbLine
 10
-90.1349
 20
-74.47239999999999
 30
0.0
 11
-91.08830000000001
 21
-74.7577
 31
0.0
  0
LINE
  5
6AA
330
1E
100
AcDbEntity
  8
default
  6
Continuous
 62
     1
100
AcDbLine
 10
-74.7577
 20
-91.08830000000001
 30
0.0
 11
-75.02849999999999
 21
-92.03219999999999
 31
0.0
  0
LINE
  5
6AB
330
1E
100
AcDbEntity
  8
default
  6
Continuous
 62
     1
100
AcDbLine
 10
-91.08830000000001
 20
-74.7577
 30
0.0
 11
-92.03219999999999
 21
-75.02849999999999
 31
0.0
  0
LINE
  5
6AC
330
1E
100
AcDbEntity
  8
default
  6
Continuous
 62
     1
100
AcDbLine
 10
-75.02849999999999
 20
-92.03219999999999
 30
0.0
 11
-75.2855
 21
-92.9673
 31
0.0
  0
LINE
  5
6AD
330
1E
100
AcDbEntity
  8
default
  6
Continuous
 62
     1
100
AcDbLine
 10
-92.03219999999999
 20
-75.02849999999999
 30
0.0
 11
-92.9673
 21
-75.2855
 31
0.0
  0
LINE
  5
6AE
330
1E
100
AcDbEntity
  8
default
  6
Continuous
 62
     1
100
AcDbLine
 10
-75.2855
 20
-92.9673
 30
0.0
 11
-75.5301
 21
-93.894
 31
0.0
  0
LINE
  5
6AF
330
1E
100
AcDbEntity
  8
default
  6
Continuous
 62
     1
100
AcDbLine
 10
-92.9673
 20
-75.2855
 30
0.0
 11
-93.894
 21
-75.5301
 31
0.0
  0
LINE
  5
6B0
330
1E
100
AcDbEntity
  8
default
  6
Continuous
 62
     1
100
AcDbLine
 10
-75.5301
 20
-93.894
 30
0.0
 11
-75.7633
 21
-94.81329999999999
 31
0.0
  0
LINE
  5
6B1
330
1E
100
AcDbEntity
  8
default
  6
Continuous
 62
     1
100
AcDbLine
 10
-93.894
 20
-75.5301
 30
0.0
 11
-94.81329999999999
 21
-75.7633
 31
0.0
  0
LINE
  5
6B2
330
1E
100
AcDbEntity
  8
default
  6
Continuous
 62
     1
100
AcDbLine
 10
-75.7633
 20
-94.81329999999999
 30
0.0
 11
-75.98659999999999
 21
-95.7258
 31
0.0
  0
LINE
  5
6B3
330
1E
100
AcDbEntity
  8
default
  6
Continuous
 62
     1
100
AcDbLine
 10
-94.81329999999999
 20
-75.7633
 30
0.0
 11
-95.7258
 21
-75.98659999999999
 31
0.0
  0
LINE
  5
6B4
330
1E
100
AcDbEntity
  8
default
  6
Continuous
 62
     1
100
AcDbLine
 10
-75.98659999999999
 20
-95.7258
 30
0.0
 11
-76.20140000000001
 21
-96.63240000000001
 31
0.0
  0
LINE
  5
6B5
330
1E
100
AcDbEntity
  8
default
  6
Continuous
 62
     1
100
AcDbLine
 10
-95.7258
 20
-75.98659999999999
 30
0.0
 11
-96.63240000000001
 21
-76.20140000000001
 31
0.0
  0
LINE
  5
6B6
330
1E
100
AcDbEntity
  8
default
  6
Continuous
 62
     1
100
AcDbLine
 10
-76.20140000000001
 20
-96.63240000000001
 30
0.0
 11
-76.40909999999999
 21
-97.53430000000001
 31
0.0
  0
LINE
  5
6B7
330
1E
100
AcDbEntity
  8
default
  6
Continuous
 62
     1
100
AcDbLine
 10
-96.63240000000001
 20
-76.20140000000001
 30
0.0
 11
-97.53430000000001
 21
-76.40909999999999
 31
0.0
  0
LINE
  5
6B8
330
1E
100
AcDbEntity
  8
default
  6
Continuous
 62
     1
100
AcDbLine
 10
-76.40909999999999
 20
-97.53430000000001
 30
0.0
 11
-76.61129999999999
 21
-98.4323
 31
0.0
  0
LINE
  5
6B9
330
1E
100
AcDbEntity
  8
default
  6
Continuous
 62
     1
100
AcDbLine
 10
-97.53430000000001
 20
-76.40909999999999
 30
0.0
 11
-98.4323
 21
-76.61129999999999
 31
0.0
  0
LINE
  5
6BA
330
1E
100
AcDbEntity
  8
default
  6
Continuous
 62
     1
100
AcDbLine
 10
-76.61129999999999
 20
-98.4323
 30
0.0
 11
-76.80970000000001
 21
-99.32769999999999
 31
0.0
  0
LINE
  5
6BB
330
1E
100
AcDbEntity
  8
default
  6
Continuous
 62
     1
100
AcDbLine
 10
-98.4323
 20
-76.61129999999999
 30
0.0
 11
-99.32769999999999
 21
-76.80970000000001
 31
0.0
  0
LINE
  5
6BC
330
1E
100
AcDbEntity
  8
default
  6
Continuous
 62
     1
100
AcDbLine
 10
-76.80970000000001
 20
-99.32769999999999
 30
0.0
 11
-77.0059
 21
-100.2215999999999
 31
0.0
  0
LINE
  5
6BD
330
1E
100
AcDbEntity
  8
default
  6
Continuous
 62
     1
100
AcDbLine
 10
-99.32769999999999
 20
-76.80970000000001
 30
0.0
 11
-100.2215999999999
 21
-77.0059
 31
0.0
  0
LINE
  5
6BE
330
1E
100
AcDbEntity
  8
default
  6
Continuous
 62
     1
100
AcDbLine
 10
-77.0059
 20
-100.2215999999999
 30
0.0
 11
-77.2017
 21
-101.1150999999999
 31
0.0
  0
LINE
  5
6BF
330
1E
100
AcDbEntity
  8
default
  6
Continuous
 62
     1
100
AcDbLine
 10
-100.2215999999999
 20
-77.0059
 30
0.0
 11
-101.1150999999999
 21
-77.2017
 31
0.0
  0
LINE
  5
6C0
330
1E
100
AcDbEntity
  8
default
  6
Continuous
 62
     1
100
AcDbLine
 10
-77.2017
 20
-101.1150999999999
 30
0.0
 11
-77.3982
 21
-102.0091
 31
0.0
  0
LINE
  5
6C1
330
1E
100
AcDbEntity
  8
default
  6
Continuous
 62
     1
100
AcDbLine
 10
-101.1150999999999
 20
-77.2017
 30
0.0
 11
-102.0091
 21
-77.3982
 31
0.0
  0
LINE
  5
6C2
330
1E
100
AcDbEntity
  8
default
  6
Continuous
 62
     1
100
AcDbLine
 10
-77.3982
 20
-102.0091
 30
0.0
 11
-77.5966
 21
-102.9041
 31
0.0
  0
LINE
  5
6C3
330
1E
100
AcDbEntity
  8
default
  6
Continuous
 62
     1
100
AcDbLine
 10
-102.0091
 20
-77.3982
 30
0.0
 11
-102.9041
 21
-77.5966
 31
0.0
  0
LINE
  5
6C4
330
1E
100
AcDbEntity
  8
default
  6
Continuous
 62
     1
100
AcDbLine
 10
-77.5966
 20
-102.9041
 30
0.0
 11
-77.79810000000001
 21
-103.8007
 31
0.0
  0
LINE
  5
6C5
330
1E
100
AcDbEntity
  8
default
  6
Continuous
 62
     1
100
AcDbLine
 10
-102.9041
 20
-77.5966
 30
0.0
 11
-103.8007
 21
-77.79810000000001
 31
0.0
  0
LINE
  5
6C6
330
1E
100
AcDbEntity
  8
default
  6
Continuous
 62
     1
100
AcDbLine
 10
-77.79810000000001
 20
-103.8007
 30
0.0
 11
-78.00360000000001
 21
-104.6993999999999
 31
0.0
  0
LINE
  5
6C7
330
1E
100
AcDbEntity
  8
default
  6
Continuous
 62
     1
100
AcDbLine
 10
-103.8007
 20
-77.79810000000001
 30
0.0
 11
-104.6993999999999
 21
-78.00360000000001
 31
0.0
  0
LINE
  5
6C8
330
1E
100
AcDbEntity
  8
default
  6
Continuous
 62
     1
100
AcDbLine
 10
-78.00360000000001
 20
-104.6993999999999
 30
0.0
 11
-78.21429999999999
 21
-105.6008999999999
 31
0.0
  0
LINE
  5
6C9
330
1E
100
AcDbEntity
  8
default
  6
Continuous
 62
     1
100
AcDbLine
 10
-104.6993999999999
 20
-78.00360000000001
 30
0.0
 11
-105.6008999999999
 21
-78.21429999999999
 31
0.0
  0
LINE
  5
6CA
330
1E
100
AcDbEntity
  8
default
  6
Continuous
 62
     1
100
AcDbLine
 10
-78.21429999999999
 20
-105.6008999999999
 30
0.0
 11
-78.4311
 21
-106.5056
 31
0.0
  0
LINE
  5
6CB
330
1E
100
AcDbEntity
  8
default
  6
Continuous
 62
     1
100
AcDbLine
 10
-105.6008999999999
 20
-78.21429999999999
 30
0.0
 11
-106.5056
 21
-78.4311
 31
0.0
  0
LINE
  5
6CC
330
1E
100
AcDbEntity
  8
default
  6
Continuous
 62
     1
100
AcDbLine
 10
-78.4311
 20
-106.5056
 30
0.0
 11
-78.6551
 21
-107.414
 31
0.0
  0
LINE
  5
6CD
330
1E
100
AcDbEntity
  8
default
  6
Continuous
 62
     1
100
AcDbLine
 10
-106.5056
 20
-78.4311
 30
0.0
 11
-107.414
 21
-78.6551
 31
0.0
  0
LINE
  5
6CE
330
1E
100
AcDbEntity
  8
default
  6
Continuous
 62
     1
100
AcDbLine
 10
-78.6551
 20
-107.414
 30
0.0
 11
-78.88720000000001
 21
-108.3264999999999
 31
0.0
  0
LINE
  5
6CF
330
1E
100
AcDbEntity
  8
default
  6
Continuous
 62
     1
100
AcDbLine
 10
-107.414
 20
-78.6551
 30
0.0
 11
-108.3264999999999
 21
-78.88720000000001
 31
0.0
  0
LINE
  5
6D0
330
1E
100
AcDbEntity
  8
default
  6
Continuous
 62
     1
100
AcDbLine
 10
-78.88720000000001
 20
-108.3264999999999
 30
0.0
 11
-79.1284
 21
-109.2435999999999
 31
0.0
  0
LINE
  5
6D1
330
1E
100
AcDbEntity
  8
default
  6
Continuous
 62
     1
100
AcDbLine
 10
-108.3264999999999
 20
-78.88720000000001
 30
0.0
 11
-109.2435999999999
 21
-79.1284
 31
0.0
  0
LINE
  5
6D2
330
1E
100
AcDbEntity
  8
default
  6
Continuous
 62
     1
100
AcDbLine
 10
-79.1284
 20
-109.2435999999999
 30
0.0
 11
-79.37940000000001
 21
-110.1657
 31
0.0
  0
LINE
  5
6D3
330
1E
100
AcDbEntity
  8
default
  6
Continuous
 62
     1
100
AcDbLine
 10
-109.2435999999999
 20
-79.1284
 30
0.0
 11
-110.1657
 21
-79.37940000000001
 31
0.0
  0
LINE
  5
6D4
330
1E
100
AcDbEntity
  8
default
  6
Continuous
 62
     1
100
AcDbLine
 10
-79.37940000000001
 20
-110.1657
 30
0.0
 11
-79.64109999999999
 21
-111.0929999999999
 31
0.0
  0
LINE
  5
6D5
330
1E
100
AcDbEntity
  8
default
  6
Continuous
 62
     1
100
AcDbLine
 10
-110.1657
 20
-79.37940000000001
 30
0.0
 11
-111.0929999999999
 21
-79.64109999999999
 31
0.0
  0
LINE
  5
6D6
330
1E
100
AcDbEntity
  8
default
  6
Continuous
 62
     1
100
AcDbLine
 10
-79.64109999999999
 20
-111.0929999999999
 30
0.0
 11
-79.9144
 21
-112.0257999999999
 31
0.0
  0
LINE
  5
6D7
330
1E
100
AcDbEntity
  8
default
  6
Continuous
 62
     1
100
AcDbLine
 10
-111.0929999999999
 20
-79.64109999999999
 30
0.0
 11
-112.0257999999999
 21
-79.9144
 31
0.0
  0
LINE
  5
6D8
330
1E
100
AcDbEntity
  8
default
  6
Continuous
 62
     1
100
AcDbLine
 10
-79.9144
 20
-112.0257999999999
 30
0.0
 11
-80.1998
 21
-112.9644
 31
0.0
  0
LINE
  5
6D9
330
1E
100
AcDbEntity
  8
default
  6
Continuous
 62
     1
100
AcDbLine
 10
-112.0257999999999
 20
-79.9144
 30
0.0
 11
-112.9644
 21
-80.1998
 31
0.0
  0
LINE
  5
6DA
330
1E
100
AcDbEntity
  8
default
  6
Continuous
 62
     1
100
AcDbLine
 10
-80.1998
 20
-112.9644
 30
0.0
 11
-80.4982
 21
-113.9089
 31
0.0
  0
LINE
  5
6DB
330
1E
100
AcDbEntity
  8
default
  6
Continuous
 62
     1
100
AcDbLine
 10
-112.9644
 20
-80.1998
 30
0.0
 11
-113.9089
 21
-80.4982
 31
0.0
  0
LINE
  5
6DC
330
1E
100
AcDbEntity
  8
default
  6
Continuous
 62
     1
100
AcDbLine
 10
-80.4982
 20
-113.9089
 30
0.0
 11
-80.81000000000001
 21
-114.8595999999999
 31
0.0
  0
LINE
  5
6DD
330
1E
100
AcDbEntity
  8
default
  6
Continuous
 62
     1
100
AcDbLine
 10
-113.9089
 20
-80.4982
 30
0.0
 11
-114.8595999999999
 21
-80.81000000000001
 31
0.0
  0
LINE
  5
6DE
330
1E
100
AcDbEntity
  8
default
  6
Continuous
 62
     1
100
AcDbLine
 10
-80.81000000000001
 20
-114.8595999999999
 30
0.0
 11
-81.13599999999999
 21
-115.8165
 31
0.0
  0
LINE
  5
6DF
330
1E
100
AcDbEntity
  8
default
  6
Continuous
 62
     1
100
AcDbLine
 10
-114.8595999999999
 20
-80.81000000000001
 30
0.0
 11
-115.8165
 21
-81.13599999999999
 31
0.0
  0
LINE
  5
6E0
330
1E
100
AcDbEntity
  8
default
  6
Continuous
 62
     1
100
AcDbLine
 10
-81.13599999999999
 20
-115.8165
 30
0.0
 11
-81.4765
 21
-116.7796999999999
 31
0.0
  0
LINE
  5
6E1
330
1E
100
AcDbEntity
  8
default
  6
Continuous
 62
     1
100
AcDbLine
 10
-115.8165
 20
-81.13599999999999
 30
0.0
 11
-116.7796999999999
 21
-81.4765
 31
0.0
  0
LINE
  5
6E2
330
1E
100
AcDbEntity
  8
default
  6
Continuous
 62
     1
100
AcDbLine
 10
-81.4765
 20
-116.7796999999999
 30
0.0
 11
-81.8322
 21
-117.7491
 31
0.0
  0
LINE
  5
6E3
330
1E
100
AcDbEntity
  8
default
  6
Continuous
 62
     1
100
AcDbLine
 10
-116.7796999999999
 20
-81.4765
 30
0.0
 11
-117.7491
 21
-81.8322
 31
0.0
  0
LINE
  5
6E4
330
1E
100
AcDbEntity
  8
default
  6
Continuous
 62
     1
100
AcDbLine
 10
-81.8322
 20
-117.7491
 30
0.0
 11
-82.2034
 21
-118.7248999999999
 31
0.0
  0
LINE
  5
6E5
330
1E
100
AcDbEntity
  8
default
  6
Continuous
 62
     1
100
AcDbLine
 10
-117.7491
 20
-81.8322
 30
0.0
 11
-118.7248999999999
 21
-82.2034
 31
0.0
  0
LINE
  5
6E6
330
1E
100
AcDbEntity
  8
default
  6
Continuous
 62
     1
100
AcDbLine
 10
-82.2034
 20
-118.7248999999999
 30
0.0
 11
-82.59059999999999
 21
-119.7069
 31
0.0
  0
LINE
  5
6E7
330
1E
100
AcDbEntity
  8
default
  6
Continuous
 62
     1
100
AcDbLine
 10
-118.7248999999999
 20
-82.2034
 30
0.0
 11
-119.7069
 21
-82.59059999999999
 31
0.0
  0
LINE
  5
6E8
330
1E
100
AcDbEntity
  8
default
  6
Continuous
 62
     1
100
AcDbLine
 10
-82.59059999999999
 20
-119.7069
 30
0.0
 11
-82.994
 21
-120.6949999999999
 31
0.0
  0
LINE
  5
6E9
330
1E
100
AcDbEntity
  8
default
  6
Continuous
 62
     1
100
AcDbLine
 10
-119.7069
 20
-82.59059999999999
 30
0.0
 11
-120.6949999999999
 21
-82.994
 31
0.0
  0
LINE
  5
6EA
330
1E
100
AcDbEntity
  8
default
  6
Continuous
 62
     1
100
AcDbLine
 10
-82.994
 20
-120.6949999999999
 30
0.0
 11
-83.414
 21
-121.6890999999999
 31
0.0
  0
LINE
  5
6EB
330
1E
100
AcDbEntity
  8
default
  6
Continuous
 62
     1
100
AcDbLine
 10
-120.6949999999999
 20
-82.994
 30
0.0
 11
-121.6890999999999
 21
-83.414
 31
0.0
  0
LINE
  5
6EC
330
1E
100
AcDbEntity
  8
default
  6
Continuous
 62
     1
100
AcDbLine
 10
-83.414
 20
-121.6890999999999
 30
0.0
 11
-83.85089999999999
 21
-122.689
 31
0.0
  0
LINE
  5
6ED
330
1E
100
AcDbEntity
  8
default
  6
Continuous
 62
     1
100
AcDbLine
 10
-121.6890999999999
 20
-83.414
 30
0.0
 11
-122.689
 21
-83.85089999999999
 31
0.0
  0
LINE
  5
6EE
330
1E
100
AcDbEntity
  8
default
  6
Continuous
 62
     1
100
AcDbLine
 10
-83.85089999999999
 20
-122.689
 30
0.0
 11
-84.3049
 21
-123.6945999999999
 31
0.0
  0
LINE
  5
6EF
330
1E
100
AcDbEntity
  8
default
  6
Continuous
 62
     1
100
AcDbLine
 10
-122.689
 20
-83.85089999999999
 30
0.0
 11
-123.6945999999999
 21
-84.3049
 31
0.0
  0
LINE
  5
6F0
330
1E
100
AcDbEntity
  8
default
  6
Continuous
 62
     1
100
AcDbLine
 10
-84.3049
 20
-123.6945999999999
 30
0.0
 11
-84.7761
 21
-124.7056
 31
0.0
  0
LINE
  5
6F1
330
1E
100
AcDbEntity
  8
default
  6
Continuous
 62
     1
100
AcDbLine
 10
-123.6945999999999
 20
-84.3049
 30
0.0
 11
-124.7056
 21
-84.7761
 31
0.0
  0
LINE
  5
6F2
330
1E
100
AcDbEntity
  8
default
  6
Continuous
 62
     1
100
AcDbLine
 10
-84.7761
 20
-124.7056
 30
0.0
 11
-85.26470000000001
 21
-125.7217999999999
 31
0.0
  0
LINE
  5
6F3
330
1E
100
AcDbEntity
  8
default
  6
Continuous
 62
     1
100
AcDbLine
 10
-124.7056
 20
-84.7761
 30
0.0
 11
-125.7217999999999
 21
-85.26470000000001
 31
0.0
  0
LINE
  5
6F4
330
1E
100
AcDbEntity
  8
default
  6
Continuous
 62
     1
100
AcDbLine
 10
-85.26470000000001
 20
-125.7217999999999
 30
0.0
 11
-85.7708
 21
-126.7429
 31
0.0
  0
LINE
  5
6F5
330
1E
100
AcDbEntity
  8
default
  6
Continuous
 62
     1
100
AcDbLine
 10
-125.7217999999999
 20
-85.26470000000001
 30
0.0
 11
-126.7429
 21
-85.7708
 31
0.0
  0
LINE
  5
6F6
330
1E
100
AcDbEntity
  8
default
  6
Continuous
 62
     1
100
AcDbLine
 10
-85.7708
 20
-126.7429
 30
0.0
 11
-86.29459999999999
 21
-127.7686
 31
0.0
  0
LINE
  5
6F7
330
1E
100
AcDbEntity
  8
default
  6
Continuous
 62
     1
100
AcDbLine
 10
-126.7429
 20
-85.7708
 30
0.0
 11
-127.7686
 21
-86.29459999999999
 31
0.0
  0
LINE
  5
6F8
330
1E
100
AcDbEntity
  8
default
  6
Continuous
 62
     1
100
AcDbLine
 10
-86.29459999999999
 20
-127.7686
 30
0.0
 11
-86.836
 21
-128.7985999999999
 31
0.0
  0
LINE
  5
6F9
330
1E
100
AcDbEntity
  8
default
  6
Continuous
 62
     1
100
AcDbLine
 10
-127.7686
 20
-86.29459999999999
 30
0.0
 11
-128.7985999999999
 21
-86.836
 31
0.0
  0
LINE
  5
6FA
330
1E
100
AcDbEntity
  8
default
  6
Continuous
 62
     1
100
AcDbLine
 10
-86.836
 20
-128.7985999999999
 30
0.0
 11
-87.3951
 21
-129.8326
 31
0.0
  0
LINE
  5
6FB
330
1E
100
AcDbEntity
  8
default
  6
Continuous
 62
     1
100
AcDbLine
 10
-128.7985999999999
 20
-86.836
 30
0.0
 11
-129.8326
 21
-87.3951
 31
0.0
  0
LINE
  5
6FC
330
1E
100
AcDbEntity
  8
default
  6
Continuous
 62
     1
100
AcDbLine
 10
-87.3951
 20
-129.8326
 30
0.0
 11
-87.9718
 21
-130.8701
 31
0.0
  0
LINE
  5
6FD
330
1E
100
AcDbEntity
  8
default
  6
Continuous
 62
     1
100
AcDbLine
 10
-129.8326
 20
-87.3951
 30
0.0
 11
-130.8701
 21
-87.9718
 31
0.0
  0
LINE
  5
6FE
330
1E
100
AcDbEntity
  8
default
  6
Continuous
 62
     1
100
AcDbLine
 10
-87.9718
 20
-130.8701
 30
0.0
 11
-88.56619999999999
 21
-131.9107999999999
 31
0.0
  0
LINE
  5
6FF
330
1E
100
AcDbEntity
  8
default
  6
Continuous
 62
     1
100
AcDbLine
 10
-130.8701
 20
-87.9718
 30
0.0
 11
-131.9107999999999
 21
-88.56619999999999
 31
0.0
  0
LINE
  5
700
330
1E
100
AcDbEntity
  8
default
  6
Continuous
 62
     1
100
AcDbLine
 10
-88.56619999999999
 20
-131.9107999999999
 30
0.0
 11
-89.17810000000001
 21
-132.9542999999999
 31
0.0
  0
LINE
  5
701
330
1E
100
AcDbEntity
  8
default
  6
Continuous
 62
     1
100
AcDbLine
 10
-131.9107999999999
 20
-88.56619999999999
 30
0.0
 11
-132.9542999999999
 21
-89.17810000000001
 31
0.0
  0
LINE
  5
702
330
1E
100
AcDbEntity
  8
default
  6
Continuous
 62
     1
100
AcDbLine
 10
-89.17810000000001
 20
-132.9542999999999
 30
0.0
 11
-89.8075
 21
-134.0002
 31
0.0
  0
LINE
  5
703
330
1E
100
AcDbEntity
  8
default
  6
Continuous
 62
     1
100
AcDbLine
 10
-132.9542999999999
 20
-89.17810000000001
 30
0.0
 11
-134.0002
 21
-89.8075
 31
0.0
  0
LINE
  5
704
330
1E
100
AcDbEntity
  8
default
  6
Continuous
 62
     1
100
AcDbLine
 10
-89.8075
 20
-134.0002
 30
0.0
 11
-90.45430000000001
 21
-135.048
 31
0.0
  0
LINE
  5
705
330
1E
100
AcDbEntity
  8
default
  6
Continuous
 62
     1
100
AcDbLine
 10
-134.0002
 20
-89.8075
 30
0.0
 11
-135.048
 21
-90.45430000000001
 31
0.0
  0
LINE
  5
706
330
1E
100
AcDbEntity
  8
default
  6
Continuous
 62
     1
100
AcDbLine
 10
-90.45430000000001
 20
-135.048
 30
0.0
 11
-91.11819999999999
 21
-136.0973999999999
 31
0.0
  0
LINE
  5
707
330
1E
100
AcDbEntity
  8
default
  6
Continuous
 62
     1
100
AcDbLine
 10
-135.048
 20
-90.45430000000001
 30
0.0
 11
-136.0973999999999
 21
-91.11819999999999
 31
0.0
  0
LINE
  5
708
330
1E
100
AcDbEntity
  8
default
  6
Continuous
 62
     1
100
AcDbLine
 10
-91.11819999999999
 20
-136.0973999999999
 30
0.0
 11
-91.7992
 21
-137.1477999999999
 31
0.0
  0
LINE
  5
709
330
1E
100
AcDbEntity
  8
default
  6
Continuous
 62
     1
100
AcDbLine
 10
-136.0973999999999
 20
-91.11819999999999
 30
0.0
 11
-137.1477999999999
 21
-91.7992
 31
0.0
  0
LINE
  5
70A
330
1E
100
AcDbEntity
  8
default
  6
Continuous
 62
     1
100
AcDbLine
 10
-91.7992
 20
-137.1477999999999
 30
0.0
 11
-92.497
 21
-138.1987999999999
 31
0.0
  0
LINE
  5
70B
330
1E
100
AcDbEntity
  8
default
  6
Continuous
 62
     1
100
AcDbLine
 10
-137.1477999999999
 20
-91.7992
 30
0.0
 11
-138.1987999999999
 21
-92.497
 31
0.0
  0
LINE
  5
70C
330
1E
100
AcDbEntity
  8
default
  6
Continuous
 62
     1
100
AcDbLine
 10
-92.497
 20
-138.1987999999999
 30
0.0
 11
-93.21150000000001
 21
-139.2498999999999
 31
0.0
  0
LINE
  5
70D
330
1E
100
AcDbEntity
  8
default
  6
Continuous
 62
     1
100
AcDbLine
 10
-138.1987999999999
 20
-92.497
 30
0.0
 11
-139.2498999999999
 21
-93.21150000000001
 31
0.0
  0
LINE
  5
70E
330
1E
100
AcDbEntity
  8
default
  6
Continuous
 62
     1
100
AcDbLine
 10
-93.21150000000001
 20
-139.2498999999999
 30
0.0
 11
-93.9423
 21
-140.3005999999999
 31
0.0
  0
LINE
  5
70F
330
1E
100
AcDbEntity
  8
default
  6
Continuous
 62
     1
100
AcDbLine
 10
-139.2498999999999
 20
-93.21150000000001
 30
0.0
 11
-140.3005999999999
 21
-93.9423
 31
0.0
  0
LINE
  5
710
330
1E
100
AcDbEntity
  8
default
  6
Continuous
 62
     1
100
AcDbLine
 10
-93.9423
 20
-140.3005999999999
 30
0.0
 11
-94.6893
 21
-141.3505
 31
0.0
  0
LINE
  5
711
330
1E
100
AcDbEntity
  8
default
  6
Continuous
 62
     1
100
AcDbLine
 10
-140.3005999999999
 20
-93.9423
 30
0.0
 11
-141.3505
 21
-94.6893
 31
0.0
  0
LINE
  5
712
330
1E
100
AcDbEntity
  8
default
  6
Continuous
 62
     1
100
AcDbLine
 10
-94.6893
 20
-141.3505
 30
0.0
 11
-95.4521
 21
-142.3991
 31
0.0
  0
LINE
  5
713
330
1E
100
AcDbEntity
  8
default
  6
Continuous
 62
     1
100
AcDbLine
 10
-141.3505
 20
-94.6893
 30
0.0
 11
-142.3991
 21
-95.4521
 31
0.0
  0
LINE
  5
714
330
1E
100
AcDbEntity
  8
default
  6
Continuous
 62
     1
100
AcDbLine
 10
-95.4521
 20
-142.3991
 30
0.0
 11
-96.2305
 21
-143.4458
 31
0.0
  0
LINE
  5
715
330
1E
100
AcDbEntity
  8
default
  6
Continuous
 62
     1
100
AcDbLine
 10
-142.3991
 20
-95.4521
 30
0.0
 11
-143.4458
 21
-96.2305
 31
0.0
  0
LINE
  5
716
330
1E
100
AcDbEntity
  8
default
  6
Continuous
 62
     1
100
AcDbLine
 10
-96.2305
 20
-143.4458
 30
0.0
 11
-97.0242
 21
-144.4901
 31
0.0
  0
LINE
  5
717
330
1E
100
AcDbEntity
  8
default
  6
Continuous
 62
     1
100
AcDbLine
 10
-143.4458
 20
-96.2305
 30
0.0
 11
-144.4901
 21
-97.0242
 31
0.0
  0
LINE
  5
718
330
1E
100
AcDbEntity
  8
default
  6
Continuous
 62
     1
100
AcDbLine
 10
-97.0242
 20
-144.4901
 30
0.0
 11
-97.83280000000001
 21
-145.5316
 31
0.0
  0
LINE
  5
719
330
1E
100
AcDbEntity
  8
default
  6
Continuous
 62
     1
100
AcDbLine
 10
-144.4901
 20
-97.0242
 30
0.0
 11
-145.5316
 21
-97.83280000000001
 31
0.0
  0
LINE
  5
71A
330
1E
100
AcDbEntity
  8
default
  6
Continuous
 62
     1
100
AcDbLine
 10
-97.83280000000001
 20
-145.5316
 30
0.0
 11
-98.6561
 21
-146.5696
 31
0.0
  0
LINE
  5
71B
330
1E
100
AcDbEntity
  8
default
  6
Continuous
 62
     1
100
AcDbLine
 10
-145.5316
 20
-97.83280000000001
 30
0.0
 11
-146.5696
 21
-98.6561
 31
0.0
  0
LINE
  5
71C
330
1E
100
AcDbEntity
  8
default
  6
Continuous
 62
     1
100
AcDbLine
 10
-98.6561
 20
-146.5696
 30
0.0
 11
-99.4935
 21
-147.6038
 31
0.0
  0
LINE
  5
71D
330
1E
100
AcDbEntity
  8
default
  6
Continuous
 62
     1
100
AcDbLine
 10
-146.5696
 20
-98.6561
 30
0.0
 11
-147.6038
 21
-99.4935
 31
0.0
  0
LINE
  5
71E
330
1E
100
AcDbEntity
  8
default
  6
Continuous
 62
     1
100
AcDbLine
 10
-99.4935
 20
-147.6038
 30
0.0
 11
-100.3449
 21
-148.6336
 31
0.0
  0
LINE
  5
71F
330
1E
100
AcDbEntity
  8
default
  6
Continuous
 62
     1
100
AcDbLine
 10
-147.6038
 20
-99.4935
 30
0.0
 11
-148.6336
 21
-100.3449
 31
0.0
  0
LINE
  5
720
330
1E
100
AcDbEntity
  8
default
  6
Continuous
 62
     1
100
AcDbLine
 10
-100.3449
 20
-148.6336
 30
0.0
 11
-101.2097
 21
-149.6584
 31
0.0
  0
LINE
  5
721
330
1E
100
AcDbEntity
  8
default
  6
Continuous
 62
     1
100
AcDbLine
 10
-148.6336
 20
-100.3449
 30
0.0
 11
-149.6584
 21
-101.2097
 31
0.0
  0
LINE
  5
722
330
1E
100
AcDbEntity
  8
default
  6
Continuous
 62
     1
100
AcDbLine
 10
-101.2097
 20
-149.6584
 30
0.0
 11
-102.0875999999999
 21
-150.6776999999999
 31
0.0
  0
LINE
  5
723
330
1E
100
AcDbEntity
  8
default
  6
Continuous
 62
     1
100
AcDbLine
 10
-149.6584
 20
-101.2097
 30
0.0
 11
-150.6776999999999
 21
-102.0875999999999
 31
0.0
  0
LINE
  5
724
330
1E
100
AcDbEntity
  8
default
  6
Continuous
 62
     1
100
AcDbLine
 10
-102.0875999999999
 20
-150.6776999999999
 30
0.0
 11
-102.9781999999999
 21
-151.6911
 31
0.0
  0
LINE
  5
725
330
1E
100
AcDbEntity
  8
default
  6
Continuous
 62
     1
100
AcDbLine
 10
-150.6776999999999
 20
-102.0875999999999
 30
0.0
 11
-151.6911
 21
-102.9781999999999
 31
0.0
  0
LINE
  5
726
330
1E
100
AcDbEntity
  8
default
  6
Continuous
 62
     1
100
AcDbLine
 10
-102.9781999999999
 20
-151.6911
 30
0.0
 11
-103.881
 21
-152.698
 31
0.0
  0
LINE
  5
727
330
1E
100
AcDbEntity
  8
default
  6
Continuous
 62
     1
100
AcDbLine
 10
-151.6911
 20
-102.9781999999999
 30
0.0
 11
-152.698
 21
-103.881
 31
0.0
  0
LINE
  5
728
330
1E
100
AcDbEntity
  8
default
  6
Continuous
 62
     1
100
AcDbLine
 10
-103.881
 20
-152.698
 30
0.0
 11
-104.7957
 21
-153.6979
 31
0.0
  0
LINE
  5
729
330
1E
100
AcDbEntity
  8
default
  6
Continuous
 62
     1
100
AcDbLine
 10
-152.698
 20
-103.881
 30
0.0
 11
-153.6979
 21
-104.7957
 31
0.0
  0
LINE
  5
72A
330
1E
100
AcDbEntity
  8
default
  6
Continuous
 62
     1
100
AcDbLine
 10
-104.7957
 20
-153.6979
 30
0.0
 11
-105.7217
 21
-154.6903
 31
0.0
  0
LINE
  5
72B
330
1E
100
AcDbEntity
  8
default
  6
Continuous
 62
     1
100
AcDbLine
 10
-153.6979
 20
-104.7957
 30
0.0
 11
-154.6903
 21
-105.7217
 31
0.0
  0
LINE
  5
72C
330
1E
100
AcDbEntity
  8
default
  6
Continuous
 62
     1
100
AcDbLine
 10
-105.7217
 20
-154.6903
 30
0.0
 11
-106.6586
 21
-155.6745999999999
 31
0.0
  0
LINE
  5
72D
330
1E
100
AcDbEntity
  8
default
  6
Continuous
 62
     1
100
AcDbLine
 10
-154.6903
 20
-105.7217
 30
0.0
 11
-155.6745999999999
 21
-106.6586
 31
0.0
  0
LINE
  5
72E
330
1E
100
AcDbEntity
  8
default
  6
Continuous
 62
     1
100
AcDbLine
 10
-106.6586
 20
-155.6745999999999
 30
0.0
 11
-107.606
 21
-156.6505
 31
0.0
  0
LINE
  5
72F
330
1E
100
AcDbEntity
  8
default
  6
Continuous
 62
     1
100
AcDbLine
 10
-155.6745999999999
 20
-106.6586
 30
0.0
 11
-156.6505
 21
-107.606
 31
0.0
  0
LINE
  5
730
330
1E
100
AcDbEntity
  8
default
  6
Continuous
 62
     1
100
AcDbLine
 10
-107.606
 20
-156.6505
 30
0.0
 11
-108.5633
 21
-157.6173
 31
0.0
  0
LINE
  5
731
330
1E
100
AcDbEntity
  8
default
  6
Continuous
 62
     1
100
AcDbLine
 10
-156.6505
 20
-107.606
 30
0.0
 11
-157.6173
 21
-108.5633
 31
0.0
  0
LINE
  5
732
330
1E
100
AcDbEntity
  8
default
  6
Continuous
 62
     1
100
AcDbLine
 10
-108.5633
 20
-157.6173
 30
0.0
 11
-157.6173
 21
-108.5633
 31
0.0
  0
LINE
  5
733
330
1E
100
AcDbEntity
  8
default
  6
Continuous
 62
     1
100
AcDbLine
 10
3.490499999999999
 20
-96.8674
 30
0.0
 11
-3.490499999999999
 21
-96.8674
 31
0.0
  0
LINE
  5
734
330
1E
100
AcDbEntity
  8
default
  6
Continuous
 62
     1
100
AcDbLine
 10
70.9638
 20
-66.0274
 30
0.0
 11
66.0274
 21
-70.9638
 31
0.0
  0
LINE
  5
735
330
1E
100
AcDbEntity
  8
default
  6
Continuous
 62
     1
100
AcDbLine
 10
96.8674
 20
3.490499999999999
 30
0.0
 11
96.8674
 21
-3.490499999999999
 31
0.0
  0
LINE
  5
736
330
1E
100
AcDbEntity
  8
default
  6
Continuous
 62
     1
100
AcDbLine
 10
66.0274
 20
70.9638
 30
0.0
 11
70.9638
 21
66.0274
 31
0.0
  0
LINE
  5
737
330
1E
100
AcDbEntity
  8
default
  6
Continuous
 62
     1
100
AcDbLine
 10
-3.490499999999999
 20
96.8674
 30
0.0
 11
3.490499999999999
 21
96.8674
 31
0.0
  0
LINE
  5
738
330
1E
100
AcDbEntity
  8
default
  6
Continuous
 62
     1
100
AcDbLine
 10
-70.9638
 20
66.0274
 30
0.0
 11
-66.0274
 21
70.9638
 31
0.0
  0
LINE
  5
739
330
1E
100
AcDbEntity
  8
default
  6
Continuous
 62
     1
100
AcDbLine
 10
-96.8674
 20
-3.490499999999999
 30
0.0
 11
-96.8674
 21
3.490499999999999
 31
0.0
  0
LINE
  5
73A
330
1E
100
AcDbEntity
  8
default
  6
Continuous
 62
     1
100
AcDbLine
 10
-66.0274
 20
-70.9638
 30
0.0
 11
-70.9638
 21
-66.0274
 31
0.0
  0
LWPOLYLINE
  5
73F
330
1E
100
AcDbEntity
  8
0
  6
Continuous
 62
     1
100
AcDbPolyline
 90
        2
 70
     0
 43
0.0
 10
88.0
 20
2000.0
 10
42.0
 20
2000.0
  0
LWPOLYLINE
  5
740
330
1E
100
AcDbEntity
  8
0
  6
Continuous
 62
     6
100
AcDbPolyline
 90
        2
 70
     0
 43
0.0
 10
0.0
 20
2016.0
 10
0.0
 20
2000.0
  0
LWPOLYLINE
  5
743
330
1E
100
AcDbEntity
  8
0
  6
Continuous
 62
     2
100
AcDbPolyline
 90
        2
 70
     0
 43
0.0
 10
42.0
 20
2000.0
 10
42.0
 20
2049.996003562869
  0
TEXT
  5
744
330
1E
100
AcDbEntity
  8
0
  6
Continuous
 62
     1
100
AcDbText
 10
63.34596416312525
 20
2002.157123153108
 30
0.0
 40
4.0
  1
a
100
AcDbText
  0
TEXT
  5
745
330
1E
100
AcDbEntity
  8
0
  6
Continuous
 62
     2
100
AcDbText
 10
44.42003831373585
 20
2019.47527434042
 30
0.0
 40
4.0
  1
b
100
AcDbText
  0
TEXT
  5
747
330
1E
100
AcDbEntity
  8
0
  6
Continuous
 62
     7
100
AcDbText
 10
1.968152872672362
 20
2032.247724119466
 30
0.0
 40
4.0
  1
Ar
100
AcDbText
  0
TEXT
  5
748
330
1E
100
AcDbEntity
  8
0
  6
Continuous
 62
    30
100
AcDbText
 10
-4.035974141459632
 20
1908.877217101907
 30
0.0
 40
4.0
  1
Line height
 50
90.0
100
AcDbText
  0
TEXT
  5
749
330
1E
100
AcDbEntity
  8
0
  6
Continuous
 62
     6
100
AcDbText
 10
-4.771509807747861
 20
2006.460332689126
 30
0.0
 40
4.0
  1
c
100
AcDbText
  0
LINE
  5
74A
330
1E
100
AcDbEntity
  8
0
  6
Continuous
 62
     3
100
AcDbLine
 10
0.0
 20
2000.0
 30
0.0
 11
42.0
 21
2000.0
 31
0.0
  0
TEXT
  5
74B
330
1E
100
AcDbEntity
  8
0
  6
Continuous
 62
     3
100
AcDbText
 10
18.86012711170588
 20
2002.157123153108
 30
0.0
 40
4.0
  1
ap
100
AcDbText
  0
LWPOLYLINE
  5
74E
330
1E
100
AcDbEntity
  8
0
  6
Continuous
 62
     7
100
AcDbPolyline
 90
        2
 70
     0
 43
0.0
 10
8.000000000000003
 20
2030.793228291751
 10
0.0000000000000018
 20
2030.793228291751
  0
LWPOLYLINE
  5
74F
330
1E
100
AcDbEntity
  8
0
  6
Continuous
 62
     9
100
AcDbPolyline
 90
        2
 70
     0
 43
0.0
 10
0.0
 20
2016.0
 10
0.0
 20
2030.793228291751
  0
LWPOLYLINE
  5
752
330
1E
100
AcDbEntity
  8
0
  6
Continuous
 62
    30
100
AcDbPolyline
 90
        2
 70
     0
 43
0.0
 10
0.0
 20
1818.0
 10
0.0
 20
2000.0
  0
LWPOLYLINE
  5
753
330
1E
100
AcDbEntity
  8
0
  6
Continuous
100
AcDbPolyline
 90
        2
 70
     0
 43
0.0
 10
0.0
 20
1818.0
 10
88.0
 20
2000.0
  0
LWPOLYLINE
  5
754
330
1E
100
AcDbEntity
  8
0
  6
Continuous
100
AcDbPolyline
 90
        2
 70
     0
 43
0.0
 10
0.0
 20
1818.0
 10
-88.0
 20
2000.0
  0
ENDSEC
  0
SECTION
  2
OBJECTS
  0
DICTIONARY
  5
C
330
0
100
AcDbDictionary
281
     1
  3
ACAD_GROUP
350
D
  3
ACAD_LAYOUT
350
19
  3
ACAD_MLINESTYLE
350
16
  3
ACAD_PLOTSETTINGS
350
18
  3
ACAD_PLOTSTYLENAME
350
E
  3
AcDbVariableDictionary
350
75C
  3
ADE_QUERY_LIBRARY
350
75A
  3
ASE_INDEX_DICTIONARY
350
756
1001
ADE
1000
ADE02C004
1000
[Query]
1000
CaseSensitiveMatch=0
1000
SaveCurrQueryInSession=1
1000
MkSelSetWithQryObj=0
1000
ShowBlockAsInsPt=0
1000
CreateAssociativeHatchObjects=0
1000
ReferenceBoundaryForAreaLocation=1
1000
ShowImageAsBoundary=1
1000
DefaultJoinOperator=2
1000
ColorForAdd=red
1000
ColorForRemove=red
1000
BlockLocnForQuery=1
1000
TextLocnForQuery=1
1000
[Save Back]
1000
RedefineBlockDefinitions=1
1000
RedefineLayerDefinitions=1
1000
RedefineTextStyleDefinitions=1
1000
RemoveUnusedGroups=1
1000
EraseSavedBackObjects=1
1000
RemoveLockAfterSave=1
1000
CreateHistoryFileOfChanges=0
1000
CreateBackupFileOfSourceDwg=1
1000
DontAddObjectsToSaveSet=0
1000
MarkObjectsForEditingWithoutPrompting=0
1000
[Coordinate Transformation]
1000
RestoreLastActiveDwgsOnStartup=1
1000
ActivateDwgsOnAttach=1
1000
AdjustSizesAndScalesForChangesInUnits=1
1000
AdjustRotationsForMapDistortions=1
1000
AdjustSizesAndScalesForMapDistortions=1
1000
AdjustElevations=1
1000
AdjustZeroRotationObjects=1
1000
ReconnectDbOnWSOpen=1
1000
NoOfSQLConditionsInHistory=10
  0
DICTIONARY
  5
D
102
{ACAD_REACTORS
330
C
102
}
330
C
100
AcDbDictionary
281
     1
  0
DICTIONARY
  5
19
102
{ACAD_REACTORS
330
C
102
}
330
C
100
AcDbDictionary
281
     1
  3
Layout1
350
1D
  3
Model
350
21
  0
DICTIONARY
  5
16
102
{ACAD_REACTORS
330
C
102
}
330
C
100
AcDbDictionary
281
     1
  3
Standard
350
17
  0
DICTIONARY
  5
18
102
{ACAD_REACTORS
330
C
102
}
330
C
100
AcDbDictionary
281
     1
  0
ACDBDICTIONARYWDFLT
  5
E
102
{ACAD_REACTORS
330
C
102
}
330
C
100
AcDbDictionary
281
     1
  3
Normal
350
F
100
AcDbDictionaryWithDefault
340
F
  0
DICTIONARY
  5
75C
102
{ACAD_REACTORS
330
C
102
}
330
C
100
AcDbDictionary
281
     1
  3
DIMASSOC
350
75D
  0
DICTIONARY
  5
75A
102
{ACAD_REACTORS
330
C
102
}
330
C
100
AcDbDictionary
281
     1
  3
_CurrQry
350
75B
  0
DICTIONARY
  5
756
102
{ACAD_REACTORS
330
C
102
}
330
C
100
AcDbDictionary
281
     1
  3
ASEBlockHierarchyIndexRecord
350
758
1001
DCO15
1040
2077377203.36
  0
LAYOUT
  5
1D
102
{ACAD_REACTORS
330
19
102
}
330
19
100
AcDbPlotSettings
  1

  2
C:\Program Files\Autodesk Map 5\plotters\DWF ePlot (optimized for plotting).pc3
  4

  6

 40
0.0
 41
0.0
 42
0.0
 43
0.0
 44
0.0
 45
0.0
 46
0.0
 47
0.0
 48
0.0
 49
0.0
140
0.0
141
0.0
142
1.0
143
1.0
 70
   688
 72
     0
 73
     0
 74
     5
  7

 75
    16
147
1.0
148
0.0
149
0.0
100
AcDbLayout
  1
Layout1
 70
     1
 71
     1
 10
0.0
 20
0.0
 11
12.0
 21
9.0
 12
0.0
 22
0.0
 32
0.0
 14
1.000000000000000E+20
 24
1.000000000000000E+20
 34
1.000000000000000E+20
 15
-1.000000000000000E+20
 25
-1.000000000000000E+20
 35
-1.000000000000000E+20
146
0.0
 13
0.0
 23
0.0
 33
0.0
 16
1.0
 26
0.0
 36
0.0
 17
0.0
 27
1.0
 37
0.0
 76
     0
330
1A
  0
LAYOUT
  5
21
102
{ACAD_REACTORS
330
19
102
}
330
19
100
AcDbPlotSettings
  1

  2
C:\Program Files\Autodesk Map 5\plotters\DWF ePlot (optimized for plotting).pc3
  4

  6

 40
0.0
 41
0.0
 42
0.0
 43
0.0
 44
0.0
 45
0.0
 46
0.0
 47
0.0
 48
0.0
 49
0.0
140
0.0
141
0.0
142
1.0
143
1.0
 70
  1712
 72
     0
 73
     0
 74
     0
  7

 75
     0
147
1.0
148
0.0
149
0.0
100
AcDbLayout
  1
Model
 70
     1
 71
     0
 10
0.0
 20
0.0
 11
12.0
 21
9.0
 12
0.0
 22
0.0
 32
0.0
 14
0.0
 24
0.0
 34
0.0
 15
0.0
 25
0.0
 35
0.0
146
0.0
 13
0.0
 23
0.0
 33
0.0
 16
1.0
 26
0.0
 36
0.0
 17
0.0
 27
1.0
 37
0.0
 76
     0
330
1E
  0
MLINESTYLE
  5
17
102
{ACAD_REACTORS
330
16
102
}
330
16
100
AcDbMlineStyle
  2
STANDARD
 70
     0
  3

 62
   256
 51
90.0
 52
90.0
 71
     2
 49
0.5
 62
   256
  6
BYLAYER
 49
-0.5
 62
   256
  6
BYLAYER
  0
ACDBPLACEHOLDER
  5
F
102
{ACAD_REACTORS
330
E
102
}
330
E
  0
DICTIONARYVAR
  5
75D
102
{ACAD_REACTORS
330
75C
102
}
330
75C
100
DictionaryVariables
280
     0
  1
1
  0
XRECORD
  5
75B
102
{ACAD_REACTORS
330
75A
102
}
330
75A
100
AcDbXrecord
280
     1
1000
ADE02C001
1070
     1
1070
     0
1002
{
1002
}
1002
{
1002
}
1002
{
1002
}
1000

  0
XRECORD
  5
758
102
{ACAD_REACTORS
330
756
102
}
330
756
100
AcDbXrecord
280
     1
  0
ENDSEC
  0
EOF
