  0
SECTION
  2
HEADER
  9
$ACADVER
  1
AC1015
  9
$ACADMAINTVER
 70
    13
  9
$DWGCODEPAGE
  3
ANSI_1252
  9
$INSBASE
 10
0.0
 20
0.0
 30
0.0
  9
$EXTMIN
 10
-67.256
 20
0.151
 30
-37.31199999999999
  9
$EXTMAX
 10
67.256
 20
291.4019999999999
 30
687.7539999999998
  9
$LIMMIN
 10
0.0
 20
0.0
  9
$LIMMAX
 10
12.0
 20
9.0
  9
$ORTHOMODE
 70
     0
  9
$REGENMODE
 70
     1
  9
$FILLMODE
 70
     1
  9
$QTEXTMODE
 70
     0
  9
$MIRRTEXT
 70
     1
  9
$LTSCALE
 40
1.0
  9
$ATTMODE
 70
     1
  9
$TEXTSIZE
 40
0.2
  9
$TRACEWID
 40
0.05
  9
$TEXTSTYLE
  7
Standard
  9
$CLAYER
  8
0
  9
$CELTYPE
  6
Continuous
  9
$CECOLOR
 62
   256
  9
$CELTSCALE
 40
1.0
  9
$DISPSILH
 70
     0
  9
$DIMSCALE
 40
1.0
  9
$DIMASZ
 40
0.18
  9
$DIMEXO
 40
0.0625
  9
$DIMDLI
 40
0.38
  9
$DIMRND
 40
0.0
  9
$DIMDLE
 40
0.0
  9
$DIMEXE
 40
0.18
  9
$DIMTP
 40
0.0
  9
$DIMTM
 40
0.0
  9
$DIMTXT
 40
0.18
  9
$DIMCEN
 40
0.09
  9
$DIMTSZ
 40
0.0
  9
$DIMTOL
 70
     0
  9
$DIMLIM
 70
     0
  9
$DIMTIH
 70
     1
  9
$DIMTOH
 70
     1
  9
$DIMSE1
 70
     0
  9
$DIMSE2
 70
     0
  9
$DIMTAD
 70
     0
  9
$DIMZIN
 70
     0
  9
$DIMBLK
  1

  9
$DIMASO
 70
     1
  9
$DIMSHO
 70
     1
  9
$DIMPOST
  1

  9
$DIMAPOST
  1

  9
$DIMALT
 70
     0
  9
$DIMALTD
 70
     2
  9
$DIMALTF
 40
25.4
  9
$DIMLFAC
 40
1.0
  9
$DIMTOFL
 70
     0
  9
$DIMTVP
 40
0.0
  9
$DIMTIX
 70
     0
  9
$DIMSOXD
 70
     0
  9
$DIMSAH
 70
     0
  9
$DIMBLK1
  1

  9
$DIMBLK2
  1

  9
$DIMSTYLE
  2
Standard
  9
$DIMCLRD
 70
     0
  9
$DIMCLRE
 70
     0
  9
$DIMCLRT
 70
     0
  9
$DIMTFAC
 40
1.0
  9
$DIMGAP
 40
0.09
  9
$DIMJUST
 70
     0
  9
$DIMSD1
 70
     0
  9
$DIMSD2
 70
     0
  9
$DIMTOLJ
 70
     1
  9
$DIMTZIN
 70
     0
  9
$DIMALTZ
 70
     0
  9
$DIMALTTZ
 70
     0
  9
$DIMUPT
 70
     0
  9
$DIMDEC
 70
     4
  9
$DIMTDEC
 70
     4
  9
$DIMALTU
 70
     2
  9
$DIMALTTD
 70
     2
  9
$DIMTXSTY
  7
Standard
  9
$DIMAUNIT
 70
     0
  9
$DIMADEC
 70
     0
  9
$DIMALTRND
 40
0.0
  9
$DIMAZIN
 70
     0
  9
$DIMDSEP
 70
    46
  9
$DIMATFIT
 70
     3
  9
$DIMFRAC
 70
     0
  9
$DIMLDRBLK
  1

  9
$DIMLUNIT
 70
     2
  9
$DIMLWD
 70
    -2
  9
$DIMLWE
 70
    -2
  9
$DIMTMOVE
 70
     0
  9
$LUNITS
 70
     2
  9
$LUPREC
 70
     4
  9
$SKETCHINC
 40
0.1
  9
$FILLETRAD
 40
0.0
  9
$AUNITS
 70
     0
  9
$AUPREC
 70
     0
  9
$MENU
  1
.
  9
$ELEVATION
 40
0.0
  9
$PELEVATION
 40
0.0
  9
$THICKNESS
 40
0.0
  9
$LIMCHECK
 70
     0
  9
$CHAMFERA
 40
0.0
  9
$CHAMFERB
 40
0.0
  9
$CHAMFERC
 40
0.0
  9
$CHAMFERD
 40
0.0
  9
$SKPOLY
 70
     0
  9
$TDCREATE
 40
2459477.715281609
  9
$TDUCREATE
 40
2459477.631948275
  9
$TDUPDATE
 40
2459477.721547199
  9
$TDUUPDATE
 40
2459477.638213866
  9
$TDINDWG
 40
0.0062660069
  9
$TDUSRTIMER
 40
0.0062660069
  9
$USRTIMER
 70
     1
  9
$ANGBASE
 50
0.0
  9
$ANGDIR
 70
     0
  9
$PDMODE
 70
     0
  9
$PDSIZE
 40
0.0
  9
$PLINEWID
 40
0.0
  9
$SPLFRAME
 70
     0
  9
$SPLINETYPE
 70
     6
  9
$SPLINESEGS
 70
     8
  9
$HANDSEED
  5
598
  9
$SURFTAB1
 70
     6
  9
$SURFTAB2
 70
     6
  9
$SURFTYPE
 70
     6
  9
$SURFU
 70
     6
  9
$SURFV
 70
     6
  9
$UCSBASE
  2

  9
$UCSNAME
  2

  9
$UCSORG
 10
0.0
 20
0.0
 30
0.0
  9
$UCSXDIR
 10
1.0
 20
0.0
 30
0.0
  9
$UCSYDIR
 10
0.0
 20
1.0
 30
0.0
  9
$UCSORTHOREF
  2

  9
$UCSORTHOVIEW
 70
     0
  9
$UCSORGTOP
 10
0.0
 20
0.0
 30
0.0
  9
$UCSORGBOTTOM
 10
0.0
 20
0.0
 30
0.0
  9
$UCSORGLEFT
 10
0.0
 20
0.0
 30
0.0
  9
$UCSORGRIGHT
 10
0.0
 20
0.0
 30
0.0
  9
$UCSORGFRONT
 10
0.0
 20
0.0
 30
0.0
  9
$UCSORGBACK
 10
0.0
 20
0.0
 30
0.0
  9
$PUCSBASE
  2

  9
$PUCSNAME
  2

  9
$PUCSORG
 10
0.0
 20
0.0
 30
0.0
  9
$PUCSXDIR
 10
1.0
 20
0.0
 30
0.0
  9
$PUCSYDIR
 10
0.0
 20
1.0
 30
0.0
  9
$PUCSORTHOREF
  2

  9
$PUCSORTHOVIEW
 70
     0
  9
$PUCSORGTOP
 10
0.0
 20
0.0
 30
0.0
  9
$PUCSORGBOTTOM
 10
0.0
 20
0.0
 30
0.0
  9
$PUCSORGLEFT
 10
0.0
 20
0.0
 30
0.0
  9
$PUCSORGRIGHT
 10
0.0
 20
0.0
 30
0.0
  9
$PUCSORGFRONT
 10
0.0
 20
0.0
 30
0.0
  9
$PUCSORGBACK
 10
0.0
 20
0.0
 30
0.0
  9
$USERI1
 70
     0
  9
$USERI2
 70
     0
  9
$USERI3
 70
     0
  9
$USERI4
 70
     0
  9
$USERI5
 70
     0
  9
$USERR1
 40
0.0
  9
$USERR2
 40
0.0
  9
$USERR3
 40
0.0
  9
$USERR4
 40
0.0
  9
$USERR5
 40
0.0
  9
$WORLDVIEW
 70
     1
  9
$SHADEDGE
 70
     3
  9
$SHADEDIF
 70
    70
  9
$TILEMODE
 70
     1
  9
$MAXACTVP
 70
    64
  9
$PINSBASE
 10
0.0
 20
0.0
 30
0.0
  9
$PLIMCHECK
 70
     0
  9
$PEXTMIN
 10
1.000000000000000E+20
 20
1.000000000000000E+20
 30
1.000000000000000E+20
  9
$PEXTMAX
 10
-1.000000000000000E+20
 20
-1.000000000000000E+20
 30
-1.000000000000000E+20
  9
$PLIMMIN
 10
0.0
 20
0.0
  9
$PLIMMAX
 10
12.0
 20
9.0
  9
$UNITMODE
 70
     0
  9
$VISRETAIN
 70
     1
  9
$PLINEGEN
 70
     0
  9
$PSLTSCALE
 70
     1
  9
$TREEDEPTH
 70
  3020
  9
$CMLSTYLE
  2
Standard
  9
$CMLJUST
 70
     0
  9
$CMLSCALE
 40
1.0
  9
$PROXYGRAPHICS
 70
     1
  9
$MEASUREMENT
 70
     0
  9
$CELWEIGHT
370
    -1
  9
$ENDCAPS
280
     0
  9
$JOINSTYLE
280
     0
  9
$LWDISPLAY
290
     0
  9
$INSUNITS
 70
     0
  9
$HYPERLINKBASE
  1

  9
$STYLESHEET
  1

  9
$XEDIT
290
     1
  9
$CEPSNTYPE
380
     0
  9
$PSTYLEMODE
290
     1
  9
$FINGERPRINTGUID
  2
{04E7172B-3E81-43BB-8B88-C10984897180}
  9
$VERSIONGUID
  2
{6B7B8E58-E20D-4923-B2AC-6B50777C1447}
  9
$EXTNAMES
290
     1
  9
$PSVPSCALE
 40
0.0
  9
$OLESTARTUP
290
     0
  0
ENDSEC
  0
SECTION
  2
CLASSES
  0
CLASS
  1
ACDBDICTIONARYWDFLT
  2
AcDbDictionaryWithDefault
  3
AutoCAD 2000
 90
        0
280
     0
281
     0
  0
CLASS
  1
ACDBPLACEHOLDER
  2
AcDbPlaceHolder
  3
AutoCAD 2000
 90
        0
280
     0
281
     0
  0
CLASS
  1
LAYOUT
  2
AcDbLayout
  3
AutoCAD 2000
 90
        0
280
     0
281
     0
  0
CLASS
  1
DICTIONARYVAR
  2
AcDbDictionaryVar
  3
AutoCAD 2000
 90
        0
280
     0
281
     0
  0
ENDSEC
  0
SECTION
  2
TABLES
  0
TABLE
  2
VPORT
  5
8
330
0
100
AcDbSymbolTable
 70
     2
  0
VPORT
  5
597
330
8
100
AcDbSymbolTableRecord
100
AcDbViewportTableRecord
  2
*Active
 70
     0
 10
0.0
 20
0.0
 11
1.0
 21
1.0
 12
0.0
 22
0.0
 13
0.0
 23
0.0
 14
1.0
 24
1.0
 15
0.0
 25
0.0
 16
-876.899026897308
 26
-524.4325407675768
 36
242.5859266114773
 17
207.1340503996324
 27
349.1539377439691
 37
61.74753820213378
 40
379.821516826313
 41
2.096177558569666
 42
50.0
 43
0.0
 44
0.0
 50
0.0
 51
187.9933912191724
 71
     0
 72
   100
 73
     1
 74
     3
 75
     0
 76
     0
 77
     0
 78
     0
281
     0
 65
     1
110
0.0
120
0.0
130
0.0
111
1.0
121
0.0
131
0.0
112
0.0
122
1.0
132
0.0
 79
     0
146
0.0
  0
ENDTAB
  0
TABLE
  2
LTYPE
  5
5
330
0
100
AcDbSymbolTable
 70
     1
  0
LTYPE
  5
13
330
5
100
AcDbSymbolTableRecord
100
AcDbLinetypeTableRecord
  2
ByBlock
 70
     0
  3

 72
    65
 73
     0
 40
0.0
  0
LTYPE
  5
14
330
5
100
AcDbSymbolTableRecord
100
AcDbLinetypeTableRecord
  2
ByLayer
 70
     0
  3

 72
    65
 73
     0
 40
0.0
  0
LTYPE
  5
15
330
5
100
AcDbSymbolTableRecord
100
AcDbLinetypeTableRecord
  2
Continuous
 70
     0
  3
Solid line
 72
    65
 73
     0
 40
0.0
  0
ENDTAB
  0
TABLE
  2
LAYER
  5
2
330
0
100
AcDbSymbolTable
 70
     2
  0
LAYER
  5
10
330
2
100
AcDbSymbolTableRecord
100
AcDbLayerTableRecord
  2
0
 70
     0
 62
     7
  6
Continuous
370
    -3
390
F
  0
LAYER
  5
22
330
2
100
AcDbSymbolTableRecord
100
AcDbLayerTableRecord
  2
default
 70
     0
 62
     7
  6
Continuous
370
    -3
390
F
  0
ENDTAB
  0
TABLE
  2
STYLE
  5
3
330
0
100
AcDbSymbolTable
 70
     1
  0
STYLE
  5
11
330
3
100
AcDbSymbolTableRecord
100
AcDbTextStyleTableRecord
  2
Standard
 70
     0
 40
0.0
 41
1.0
 50
0.0
 71
     0
 42
0.2
  3
txt
  4

  0
ENDTAB
  0
TABLE
  2
VIEW
  5
6
330
0
100
AcDbSymbolTable
 70
     0
  0
ENDTAB
  0
TABLE
  2
UCS
  5
7
330
0
100
AcDbSymbolTable
 70
     0
  0
ENDTAB
  0
TABLE
  2
APPID
  5
9
330
0
100
AcDbSymbolTable
 70
     3
  0
APPID
  5
12
330
9
100
AcDbSymbolTableRecord
100
AcDbRegAppTableRecord
  2
ACAD
 70
     0
  0
APPID
  5
590
330
9
100
AcDbSymbolTableRecord
100
AcDbRegAppTableRecord
  2
DCO15
 70
     0
  0
APPID
  5
592
330
9
100
AcDbSymbolTableRecord
100
AcDbRegAppTableRecord
  2
ADE
 70
     0
  0
ENDTAB
  0
TABLE
  2
DIMSTYLE
  5
A
330
0
100
AcDbSymbolTable
 70
     1
100
AcDbDimStyleTable
 71
     0
  0
DIMSTYLE
105
58A
330
A
100
AcDbSymbolTableRecord
100
AcDbDimStyleTableRecord
  2
Standard
 70
     0
340
11
  0
ENDTAB
  0
TABLE
  2
BLOCK_RECORD
  5
1
330
0
100
AcDbSymbolTable
 70
     0
  0
BLOCK_RECORD
  5
1E
330
1
100
AcDbSymbolTableRecord
100
AcDbBlockTableRecord
  2
*Model_Space
340
21
  0
BLOCK_RECORD
  5
1A
330
1
100
AcDbSymbolTableRecord
100
AcDbBlockTableRecord
  2
*Paper_Space
340
1D
  0
ENDTAB
  0
ENDSEC
  0
SECTION
  2
BLOCKS
  0
BLOCK
  5
1F
330
1E
100
AcDbEntity
  8
0
100
AcDbBlockBegin
  2
*Model_Space
 70
     0
 10
0.0
 20
0.0
 30
0.0
  3
*Model_Space
  1

  0
ENDBLK
  5
20
330
1E
100
AcDbEntity
  8
0
100
AcDbBlockEnd
  0
BLOCK
  5
1B
330
1A
100
AcDbEntity
 67
     1
  8
0
100
AcDbBlockBegin
  2
*Paper_Space
 70
     0
 10
0.0
 20
0.0
 30
0.0
  3
*Paper_Space
  1

  0
ENDBLK
  5
1C
330
1A
100
AcDbEntity
 67
     1
  8
0
100
AcDbBlockEnd
  0
ENDSEC
  0
SECTION
  2
ENTITIES
  0
LINE
  5
23
330
1E
100
AcDbEntity
  8
default
  6
Continuous
 62
     5
100
AcDbLine
 10
21.333
 20
291.4019999999999
 30
0.377
 11
21.359
 21
288.0229999999999
 31
-0.377
  0
LINE
  5
24
330
1E
100
AcDbEntity
  8
default
  6
Continuous
 62
     5
100
AcDbLine
 10
-21.333
 20
291.4019999999999
 30
0.377
 11
-21.359
 21
288.0229999999999
 31
-0.377
  0
LINE
  5
25
330
1E
100
AcDbEntity
  8
default
  6
Continuous
 62
     5
100
AcDbLine
 10
21.359
 20
288.0229999999999
 30
-0.377
 11
21.40199999999999
 21
282.2649999999999
 31
-1.648
  0
LINE
  5
26
330
1E
100
AcDbEntity
  8
default
  6
Continuous
 62
     5
100
AcDbLine
 10
-21.359
 20
288.0229999999999
 30
-0.377
 11
-21.40199999999999
 21
282.2649999999999
 31
-1.648
  0
LINE
  5
27
330
1E
100
AcDbEntity
  8
default
  6
Continuous
 62
     5
100
AcDbLine
 10
21.40199999999999
 20
282.2649999999999
 30
-1.648
 11
21.453
 21
275.517
 31
-3.128999999999999
  0
LINE
  5
28
330
1E
100
AcDbEntity
  8
default
  6
Continuous
 62
     5
100
AcDbLine
 10
-21.40199999999999
 20
282.2649999999999
 30
-1.648
 11
-21.453
 21
275.517
 31
-3.128999999999999
  0
LINE
  5
29
330
1E
100
AcDbEntity
  8
default
  6
Continuous
 62
     5
100
AcDbLine
 10
21.453
 20
275.517
 30
-3.128999999999999
 11
21.51
 21
267.735
 31
-4.814
  0
LINE
  5
2A
330
1E
100
AcDbEntity
  8
default
  6
Continuous
 62
     5
100
AcDbLine
 10
-21.453
 20
275.517
 30
-3.128999999999999
 11
-21.51
 21
267.735
 31
-4.814
  0
LINE
  5
2B
330
1E
100
AcDbEntity
  8
default
  6
Continuous
 62
     5
100
AcDbLine
 10
21.51
 20
267.735
 30
-4.814
 11
21.572
 21
259.2099999999999
 31
-6.637999999999999
  0
LINE
  5
2C
330
1E
100
AcDbEntity
  8
default
  6
Continuous
 62
     5
100
AcDbLine
 10
-21.51
 20
267.735
 30
-4.814
 11
-21.572
 21
259.2099999999999
 31
-6.637999999999999
  0
LINE
  5
2D
330
1E
100
AcDbEntity
  8
default
  6
Continuous
 62
     5
100
AcDbLine
 10
21.572
 20
259.2099999999999
 30
-6.637999999999999
 11
21.635
 21
250.4399999999999
 31
-8.487999999999999
  0
LINE
  5
2E
330
1E
100
AcDbEntity
  8
default
  6
Continuous
 62
     5
100
AcDbLine
 10
-21.572
 20
259.2099999999999
 30
-6.637999999999999
 11
-21.635
 21
250.4399999999999
 31
-8.487999999999999
  0
LINE
  5
2F
330
1E
100
AcDbEntity
  8
default
  6
Continuous
 62
     5
100
AcDbLine
 10
21.635
 20
250.4399999999999
 30
-8.487999999999999
 11
21.697
 21
241.735
 31
-10.29299999999999
  0
LINE
  5
30
330
1E
100
AcDbEntity
  8
default
  6
Continuous
 62
     5
100
AcDbLine
 10
-21.635
 20
250.4399999999999
 30
-8.487999999999999
 11
-21.697
 21
241.735
 31
-10.29299999999999
  0
LINE
  5
31
330
1E
100
AcDbEntity
  8
default
  6
Continuous
 62
     5
100
AcDbLine
 10
21.697
 20
241.735
 30
-10.29299999999999
 11
21.75699999999999
 21
233.0929999999999
 31
-12.052
  0
LINE
  5
32
330
1E
100
AcDbEntity
  8
default
  6
Continuous
 62
     5
100
AcDbLine
 10
-21.697
 20
241.735
 30
-10.29299999999999
 11
-21.75699999999999
 21
233.0929999999999
 31
-12.052
  0
LINE
  5
33
330
1E
100
AcDbEntity
  8
default
  6
Continuous
 62
     5
100
AcDbLine
 10
21.75699999999999
 20
233.0929999999999
 30
-12.052
 11
21.815
 21
224.432
 31
-13.782
  0
LINE
  5
34
330
1E
100
AcDbEntity
  8
default
  6
Continuous
 62
     5
100
AcDbLine
 10
-21.75699999999999
 20
233.0929999999999
 30
-12.052
 11
-21.815
 21
224.432
 31
-13.782
  0
LINE
  5
35
330
1E
100
AcDbEntity
  8
default
  6
Continuous
 62
     5
100
AcDbLine
 10
21.815
 20
224.432
 30
-13.782
 11
21.873
 21
215.709
 31
-15.484
  0
LINE
  5
36
330
1E
100
AcDbEntity
  8
default
  6
Continuous
 62
     5
100
AcDbLine
 10
-21.815
 20
224.432
 30
-13.782
 11
-21.873
 21
215.709
 31
-15.484
  0
LINE
  5
37
330
1E
100
AcDbEntity
  8
default
  6
Continuous
 62
     5
100
AcDbLine
 10
21.873
 20
215.709
 30
-15.484
 11
21.93
 21
206.91
 31
-17.153
  0
LINE
  5
38
330
1E
100
AcDbEntity
  8
default
  6
Continuous
 62
     5
100
AcDbLine
 10
-21.873
 20
215.709
 30
-15.484
 11
-21.93
 21
206.91
 31
-17.153
  0
LINE
  5
39
330
1E
100
AcDbEntity
  8
default
  6
Continuous
 62
     5
100
AcDbLine
 10
21.93
 20
206.91
 30
-17.153
 11
21.986
 21
198.0679999999999
 31
-18.789
  0
LINE
  5
3A
330
1E
100
AcDbEntity
  8
default
  6
Continuous
 62
     5
100
AcDbLine
 10
-21.93
 20
206.91
 30
-17.153
 11
-21.986
 21
198.0679999999999
 31
-18.789
  0
LINE
  5
3B
330
1E
100
AcDbEntity
  8
default
  6
Continuous
 62
     5
100
AcDbLine
 10
21.986
 20
198.0679999999999
 30
-18.789
 11
22.04
 21
189.202
 31
-20.37999999999999
  0
LINE
  5
3C
330
1E
100
AcDbEntity
  8
default
  6
Continuous
 62
     5
100
AcDbLine
 10
-21.986
 20
198.0679999999999
 30
-18.789
 11
-22.04
 21
189.202
 31
-20.37999999999999
  0
LINE
  5
3D
330
1E
100
AcDbEntity
  8
default
  6
Continuous
 62
     5
100
AcDbLine
 10
22.04
 20
189.202
 30
-20.37999999999999
 11
22.093
 21
180.333
 31
-21.933
  0
LINE
  5
3E
330
1E
100
AcDbEntity
  8
default
  6
Continuous
 62
     5
100
AcDbLine
 10
-22.04
 20
189.202
 30
-20.37999999999999
 11
-22.093
 21
180.333
 31
-21.933
  0
LINE
  5
3F
330
1E
100
AcDbEntity
  8
default
  6
Continuous
 62
     5
100
AcDbLine
 10
22.093
 20
180.333
 30
-21.933
 11
22.144
 21
171.476
 31
-23.443
  0
LINE
  5
40
330
1E
100
AcDbEntity
  8
default
  6
Continuous
 62
     5
100
AcDbLine
 10
-22.093
 20
180.333
 30
-21.933
 11
-22.144
 21
171.476
 31
-23.443
  0
LINE
  5
41
330
1E
100
AcDbEntity
  8
default
  6
Continuous
 62
     5
100
AcDbLine
 10
22.144
 20
171.476
 30
-23.443
 11
22.195
 21
162.6399999999999
 31
-24.918
  0
LINE
  5
42
330
1E
100
AcDbEntity
  8
default
  6
Continuous
 62
     5
100
AcDbLine
 10
-22.144
 20
171.476
 30
-23.443
 11
-22.195
 21
162.6399999999999
 31
-24.918
  0
LINE
  5
43
330
1E
100
AcDbEntity
  8
default
  6
Continuous
 62
     5
100
AcDbLine
 10
22.195
 20
162.6399999999999
 30
-24.918
 11
22.243
 21
153.829
 31
-26.348
  0
LINE
  5
44
330
1E
100
AcDbEntity
  8
default
  6
Continuous
 62
     5
100
AcDbLine
 10
-22.195
 20
162.6399999999999
 30
-24.918
 11
-22.243
 21
153.829
 31
-26.348
  0
LINE
  5
45
330
1E
100
AcDbEntity
  8
default
  6
Continuous
 62
     5
100
AcDbLine
 10
22.243
 20
153.829
 30
-26.348
 11
22.29
 21
145.0539999999999
 31
-27.732
  0
LINE
  5
46
330
1E
100
AcDbEntity
  8
default
  6
Continuous
 62
     5
100
AcDbLine
 10
-22.243
 20
153.829
 30
-26.348
 11
-22.29
 21
145.0539999999999
 31
-27.732
  0
LINE
  5
47
330
1E
100
AcDbEntity
  8
default
  6
Continuous
 62
     5
100
AcDbLine
 10
22.29
 20
145.0539999999999
 30
-27.732
 11
22.336
 21
136.3189999999999
 31
-29.064
  0
LINE
  5
48
330
1E
100
AcDbEntity
  8
default
  6
Continuous
 62
     5
100
AcDbLine
 10
-22.29
 20
145.0539999999999
 30
-27.732
 11
-22.336
 21
136.3189999999999
 31
-29.064
  0
LINE
  5
49
330
1E
100
AcDbEntity
  8
default
  6
Continuous
 62
     5
100
AcDbLine
 10
22.336
 20
136.3189999999999
 30
-29.064
 11
22.379
 21
127.637
 31
-30.339
  0
LINE
  5
4A
330
1E
100
AcDbEntity
  8
default
  6
Continuous
 62
     5
100
AcDbLine
 10
-22.336
 20
136.3189999999999
 30
-29.064
 11
-22.379
 21
127.637
 31
-30.339
  0
LINE
  5
4B
330
1E
100
AcDbEntity
  8
default
  6
Continuous
 62
     5
100
AcDbLine
 10
22.379
 20
127.637
 30
-30.339
 11
22.42
 21
119.0339999999999
 31
-31.548
  0
LINE
  5
4C
330
1E
100
AcDbEntity
  8
default
  6
Continuous
 62
     5
100
AcDbLine
 10
-22.379
 20
127.637
 30
-30.339
 11
-22.42
 21
119.0339999999999
 31
-31.548
  0
LINE
  5
4D
330
1E
100
AcDbEntity
  8
default
  6
Continuous
 62
     5
100
AcDbLine
 10
22.42
 20
119.0339999999999
 30
-31.548
 11
22.459
 21
110.5229999999999
 31
-32.68399999999999
  0
LINE
  5
4E
330
1E
100
AcDbEntity
  8
default
  6
Continuous
 62
     5
100
AcDbLine
 10
-22.42
 20
119.0339999999999
 30
-31.548
 11
-22.459
 21
110.5229999999999
 31
-32.68399999999999
  0
LINE
  5
4F
330
1E
100
AcDbEntity
  8
default
  6
Continuous
 62
     5
100
AcDbLine
 10
22.459
 20
110.5229999999999
 30
-32.68399999999999
 11
22.495
 21
102.147
 31
-33.744
  0
LINE
  5
50
330
1E
100
AcDbEntity
  8
default
  6
Continuous
 62
     5
100
AcDbLine
 10
-22.459
 20
110.5229999999999
 30
-32.68399999999999
 11
-22.495
 21
102.147
 31
-33.744
  0
LINE
  5
51
330
1E
100
AcDbEntity
  8
default
  6
Continuous
 62
     5
100
AcDbLine
 10
22.495
 20
102.147
 30
-33.744
 11
22.528
 21
93.963
 31
-34.708
  0
LINE
  5
52
330
1E
100
AcDbEntity
  8
default
  6
Continuous
 62
     5
100
AcDbLine
 10
-22.495
 20
102.147
 30
-33.744
 11
-22.528
 21
93.963
 31
-34.708
  0
LINE
  5
53
330
1E
100
AcDbEntity
  8
default
  6
Continuous
 62
     5
100
AcDbLine
 10
22.528
 20
93.963
 30
-34.708
 11
22.557
 21
86.03799999999999
 31
-35.552
  0
LINE
  5
54
330
1E
100
AcDbEntity
  8
default
  6
Continuous
 62
     5
100
AcDbLine
 10
-22.528
 20
93.963
 30
-34.708
 11
-22.557
 21
86.03799999999999
 31
-35.552
  0
LINE
  5
55
330
1E
100
AcDbEntity
  8
default
  6
Continuous
 62
     5
100
AcDbLine
 10
22.557
 20
86.03799999999999
 30
-35.552
 11
22.581
 21
78.45399999999999
 31
-36.25399999999999
  0
LINE
  5
56
330
1E
100
AcDbEntity
  8
default
  6
Continuous
 62
     5
100
AcDbLine
 10
-22.557
 20
86.03799999999999
 30
-35.552
 11
-22.581
 21
78.45399999999999
 31
-36.25399999999999
  0
LINE
  5
57
330
1E
100
AcDbEntity
  8
default
  6
Continuous
 62
     5
100
AcDbLine
 10
22.581
 20
78.45399999999999
 30
-36.25399999999999
 11
22.599
 21
71.266
 31
-36.801
  0
LINE
  5
58
330
1E
100
AcDbEntity
  8
default
  6
Continuous
 62
     5
100
AcDbLine
 10
-22.581
 20
78.45399999999999
 30
-36.25399999999999
 11
-22.599
 21
71.266
 31
-36.801
  0
LINE
  5
59
330
1E
100
AcDbEntity
  8
default
  6
Continuous
 62
     5
100
AcDbLine
 10
22.599
 20
71.266
 30
-36.801
 11
22.611
 21
64.506
 31
-37.15999999999999
  0
LINE
  5
5A
330
1E
100
AcDbEntity
  8
default
  6
Continuous
 62
     5
100
AcDbLine
 10
-22.599
 20
71.266
 30
-36.801
 11
-22.611
 21
64.506
 31
-37.15999999999999
  0
LINE
  5
5B
330
1E
100
AcDbEntity
  8
default
  6
Continuous
 62
     5
100
AcDbLine
 10
22.611
 20
64.506
 30
-37.15999999999999
 11
22.61699999999999
 21
58.18
 31
-37.31199999999999
  0
LINE
  5
5C
330
1E
100
AcDbEntity
  8
default
  6
Continuous
 62
     5
100
AcDbLine
 10
-22.611
 20
64.506
 30
-37.15999999999999
 11
-22.61699999999999
 21
58.18
 31
-37.31199999999999
  0
LINE
  5
5D
330
1E
100
AcDbEntity
  8
default
  6
Continuous
 62
     5
100
AcDbLine
 10
22.61699999999999
 20
58.18
 30
-37.31199999999999
 11
22.614
 21
52.291
 31
-37.234
  0
LINE
  5
5E
330
1E
100
AcDbEntity
  8
default
  6
Continuous
 62
     5
100
AcDbLine
 10
-22.61699999999999
 20
58.18
 30
-37.31199999999999
 11
-22.614
 21
52.291
 31
-37.234
  0
LINE
  5
5F
330
1E
100
AcDbEntity
  8
default
  6
Continuous
 62
     5
100
AcDbLine
 10
22.614
 20
52.291
 30
-37.234
 11
22.603
 21
46.835
 31
-36.927
  0
LINE
  5
60
330
1E
100
AcDbEntity
  8
default
  6
Continuous
 62
     5
100
AcDbLine
 10
-22.614
 20
52.291
 30
-37.234
 11
-22.603
 21
46.835
 31
-36.927
  0
LINE
  5
61
330
1E
100
AcDbEntity
  8
default
  6
Continuous
 62
     5
100
AcDbLine
 10
22.603
 20
46.835
 30
-36.927
 11
22.585
 21
41.79999999999999
 31
-36.38
  0
LINE
  5
62
330
1E
100
AcDbEntity
  8
default
  6
Continuous
 62
     5
100
AcDbLine
 10
-22.603
 20
46.835
 30
-36.927
 11
-22.585
 21
41.79999999999999
 31
-36.38
  0
LINE
  5
63
330
1E
100
AcDbEntity
  8
default
  6
Continuous
 62
     5
100
AcDbLine
 10
22.585
 20
41.79999999999999
 30
-36.38
 11
22.559
 21
37.17499999999999
 31
-35.607
  0
LINE
  5
64
330
1E
100
AcDbEntity
  8
default
  6
Continuous
 62
     5
100
AcDbLine
 10
-22.585
 20
41.79999999999999
 30
-36.38
 11
-22.559
 21
37.17499999999999
 31
-35.607
  0
LINE
  5
65
330
1E
100
AcDbEntity
  8
default
  6
Continuous
 62
     5
100
AcDbLine
 10
22.559
 20
37.17499999999999
 30
-35.607
 11
22.52499999999999
 21
32.934
 31
-34.611
  0
LINE
  5
66
330
1E
100
AcDbEntity
  8
default
  6
Continuous
 62
     5
100
AcDbLine
 10
-22.559
 20
37.17499999999999
 30
-35.607
 11
-22.52499999999999
 21
32.934
 31
-34.611
  0
LINE
  5
67
330
1E
100
AcDbEntity
  8
default
  6
Continuous
 62
     5
100
AcDbLine
 10
22.52499999999999
 20
32.934
 30
-34.611
 11
22.48299999999999
 21
29.05699999999999
 31
-33.398
  0
LINE
  5
68
330
1E
100
AcDbEntity
  8
default
  6
Continuous
 62
     5
100
AcDbLine
 10
-22.52499999999999
 20
32.934
 30
-34.611
 11
-22.48299999999999
 21
29.05699999999999
 31
-33.398
  0
LINE
  5
69
330
1E
100
AcDbEntity
  8
default
  6
Continuous
 62
     5
100
AcDbLine
 10
22.48299999999999
 20
29.05699999999999
 30
-33.398
 11
22.435
 21
25.516
 31
-31.98199999999999
  0
LINE
  5
6A
330
1E
100
AcDbEntity
  8
default
  6
Continuous
 62
     5
100
AcDbLine
 10
-22.48299999999999
 20
29.05699999999999
 30
-33.398
 11
-22.435
 21
25.516
 31
-31.98199999999999
  0
LINE
  5
6B
330
1E
100
AcDbEntity
  8
default
  6
Continuous
 62
     5
100
AcDbLine
 10
22.435
 20
25.516
 30
-31.98199999999999
 11
22.381
 21
22.29699999999999
 31
-30.394
  0
LINE
  5
6C
330
1E
100
AcDbEntity
  8
default
  6
Continuous
 62
     5
100
AcDbLine
 10
-22.435
 20
25.516
 30
-31.98199999999999
 11
-22.381
 21
22.29699999999999
 31
-30.394
  0
LINE
  5
6D
330
1E
100
AcDbEntity
  8
default
  6
Continuous
 62
     5
100
AcDbLine
 10
22.381
 20
22.29699999999999
 30
-30.394
 11
22.32299999999999
 21
19.39099999999999
 31
-28.686
  0
LINE
  5
6E
330
1E
100
AcDbEntity
  8
default
  6
Continuous
 62
     5
100
AcDbLine
 10
-22.381
 20
22.29699999999999
 30
-30.394
 11
-22.32299999999999
 21
19.39099999999999
 31
-28.686
  0
LINE
  5
6F
330
1E
100
AcDbEntity
  8
default
  6
Continuous
 62
     5
100
AcDbLine
 10
22.32299999999999
 20
19.39099999999999
 30
-28.686
 11
22.26199999999999
 21
16.775
 31
-26.901
  0
LINE
  5
70
330
1E
100
AcDbEntity
  8
default
  6
Continuous
 62
     5
100
AcDbLine
 10
-22.32299999999999
 20
19.39099999999999
 30
-28.686
 11
-22.26199999999999
 21
16.775
 31
-26.901
  0
LINE
  5
71
330
1E
100
AcDbEntity
  8
default
  6
Continuous
 62
     5
100
AcDbLine
 10
22.26199999999999
 20
16.775
 30
-26.901
 11
22.2
 21
14.43999999999999
 31
-25.083
  0
LINE
  5
72
330
1E
100
AcDbEntity
  8
default
  6
Continuous
 62
     5
100
AcDbLine
 10
-22.26199999999999
 20
16.775
 30
-26.901
 11
-22.2
 21
14.43999999999999
 31
-25.083
  0
LINE
  5
73
330
1E
100
AcDbEntity
  8
default
  6
Continuous
 62
     5
100
AcDbLine
 10
22.2
 20
14.43999999999999
 30
-25.083
 11
22.138
 21
12.354
 31
-23.249
  0
LINE
  5
74
330
1E
100
AcDbEntity
  8
default
  6
Continuous
 62
     5
100
AcDbLine
 10
-22.2
 20
14.43999999999999
 30
-25.083
 11
-22.138
 21
12.354
 31
-23.249
  0
LINE
  5
75
330
1E
100
AcDbEntity
  8
default
  6
Continuous
 62
     5
100
AcDbLine
 10
22.138
 20
12.354
 30
-23.249
 11
22.076
 21
10.502
 31
-21.425
  0
LINE
  5
76
330
1E
100
AcDbEntity
  8
default
  6
Continuous
 62
     5
100
AcDbLine
 10
-22.138
 20
12.354
 30
-23.249
 11
-22.076
 21
10.502
 31
-21.425
  0
LINE
  5
77
330
1E
100
AcDbEntity
  8
default
  6
Continuous
 62
     5
100
AcDbLine
 10
22.076
 20
10.502
 30
-21.425
 11
22.014
 21
8.862
 31
-19.624
  0
LINE
  5
78
330
1E
100
AcDbEntity
  8
default
  6
Continuous
 62
     5
100
AcDbLine
 10
-22.076
 20
10.502
 30
-21.425
 11
-22.014
 21
8.862
 31
-19.624
  0
LINE
  5
79
330
1E
100
AcDbEntity
  8
default
  6
Continuous
 62
     5
100
AcDbLine
 10
22.014
 20
8.862
 30
-19.624
 11
21.954
 21
7.412
 31
-17.861
  0
LINE
  5
7A
330
1E
100
AcDbEntity
  8
default
  6
Continuous
 62
     5
100
AcDbLine
 10
-22.014
 20
8.862
 30
-19.624
 11
-21.954
 21
7.412
 31
-17.861
  0
LINE
  5
7B
330
1E
100
AcDbEntity
  8
default
  6
Continuous
 62
     5
100
AcDbLine
 10
21.954
 20
7.412
 30
-17.861
 11
21.895
 21
6.136
 31
-16.134
  0
LINE
  5
7C
330
1E
100
AcDbEntity
  8
default
  6
Continuous
 62
     5
100
AcDbLine
 10
-21.954
 20
7.412
 30
-17.861
 11
-21.895
 21
6.136
 31
-16.134
  0
LINE
  5
7D
330
1E
100
AcDbEntity
  8
default
  6
Continuous
 62
     5
100
AcDbLine
 10
21.895
 20
6.136
 30
-16.134
 11
21.838
 21
5.017999999999999
 31
-14.45199999999999
  0
LINE
  5
7E
330
1E
100
AcDbEntity
  8
default
  6
Continuous
 62
     5
100
AcDbLine
 10
-21.895
 20
6.136
 30
-16.134
 11
-21.838
 21
5.017999999999999
 31
-14.45199999999999
  0
LINE
  5
7F
330
1E
100
AcDbEntity
  8
default
  6
Continuous
 62
     5
100
AcDbLine
 10
21.838
 20
5.017999999999999
 30
-14.45199999999999
 11
21.78199999999999
 21
4.038999999999999
 31
-12.80299999999999
  0
LINE
  5
80
330
1E
100
AcDbEntity
  8
default
  6
Continuous
 62
     5
100
AcDbLine
 10
-21.838
 20
5.017999999999999
 30
-14.45199999999999
 11
-21.78199999999999
 21
4.038999999999999
 31
-12.80299999999999
  0
LINE
  5
81
330
1E
100
AcDbEntity
  8
default
  6
Continuous
 62
     5
100
AcDbLine
 10
21.78199999999999
 20
4.038999999999999
 30
-12.80299999999999
 11
21.72699999999999
 21
3.191
 31
-11.19199999999999
  0
LINE
  5
82
330
1E
100
AcDbEntity
  8
default
  6
Continuous
 62
     5
100
AcDbLine
 10
-21.78199999999999
 20
4.038999999999999
 30
-12.80299999999999
 11
-21.72699999999999
 21
3.191
 31
-11.19199999999999
  0
LINE
  5
83
330
1E
100
AcDbEntity
  8
default
  6
Continuous
 62
     5
100
AcDbLine
 10
21.72699999999999
 20
3.191
 30
-11.19199999999999
 11
21.674
 21
2.468999999999999
 31
-9.624
  0
LINE
  5
84
330
1E
100
AcDbEntity
  8
default
  6
Continuous
 62
     5
100
AcDbLine
 10
-21.72699999999999
 20
3.191
 30
-11.19199999999999
 11
-21.674
 21
2.468999999999999
 31
-9.624
  0
LINE
  5
85
330
1E
100
AcDbEntity
  8
default
  6
Continuous
 62
     5
100
AcDbLine
 10
21.674
 20
2.468999999999999
 30
-9.624
 11
21.62199999999999
 21
1.863
 31
-8.102999999999999
  0
LINE
  5
86
330
1E
100
AcDbEntity
  8
default
  6
Continuous
 62
     5
100
AcDbLine
 10
-21.674
 20
2.468999999999999
 30
-9.624
 11
-21.62199999999999
 21
1.863
 31
-8.102999999999999
  0
LINE
  5
87
330
1E
100
AcDbEntity
  8
default
  6
Continuous
 62
     5
100
AcDbLine
 10
21.62199999999999
 20
1.863
 30
-8.102999999999999
 11
21.572
 21
1.370999999999999
 31
-6.641
  0
LINE
  5
88
330
1E
100
AcDbEntity
  8
default
  6
Continuous
 62
     5
100
AcDbLine
 10
-21.62199999999999
 20
1.863
 30
-8.102999999999999
 11
-21.572
 21
1.370999999999999
 31
-6.641
  0
LINE
  5
89
330
1E
100
AcDbEntity
  8
default
  6
Continuous
 62
     5
100
AcDbLine
 10
21.572
 20
1.370999999999999
 30
-6.641
 11
21.524
 21
0.9779999999999999
 31
-5.217999999999999
  0
LINE
  5
8A
330
1E
100
AcDbEntity
  8
default
  6
Continuous
 62
     5
100
AcDbLine
 10
-21.572
 20
1.370999999999999
 30
-6.641
 11
-21.524
 21
0.9779999999999999
 31
-5.217999999999999
  0
LINE
  5
8B
330
1E
100
AcDbEntity
  8
default
  6
Continuous
 62
     5
100
AcDbLine
 10
21.524
 20
0.9779999999999999
 30
-5.217999999999999
 11
21.478
 21
0.666
 31
-3.859999999999999
  0
LINE
  5
8C
330
1E
100
AcDbEntity
  8
default
  6
Continuous
 62
     5
100
AcDbLine
 10
-21.524
 20
0.9779999999999999
 30
-5.217999999999999
 11
-21.478
 21
0.666
 31
-3.859999999999999
  0
LINE
  5
8D
330
1E
100
AcDbEntity
  8
default
  6
Continuous
 62
     5
100
AcDbLine
 10
21.478
 20
0.666
 30
-3.859999999999999
 11
21.43
 21
0.425
 31
-2.471999999999999
  0
LINE
  5
8E
330
1E
100
AcDbEntity
  8
default
  6
Continuous
 62
     5
100
AcDbLine
 10
-21.478
 20
0.666
 30
-3.859999999999999
 11
-21.43
 21
0.425
 31
-2.471999999999999
  0
LINE
  5
8F
330
1E
100
AcDbEntity
  8
default
  6
Continuous
 62
     5
100
AcDbLine
 10
21.43
 20
0.425
 30
-2.471999999999999
 11
21.39
 21
0.247
 31
-1.299
  0
LINE
  5
90
330
1E
100
AcDbEntity
  8
default
  6
Continuous
 62
     5
100
AcDbLine
 10
-21.43
 20
0.425
 30
-2.471999999999999
 11
-21.39
 21
0.247
 31
-1.299
  0
LINE
  5
91
330
1E
100
AcDbEntity
  8
default
  6
Continuous
 62
     5
100
AcDbLine
 10
21.39
 20
0.247
 30
-1.299
 11
21.333
 21
0.151
 31
0.377
  0
LINE
  5
92
330
1E
100
AcDbEntity
  8
default
  6
Continuous
 62
     5
100
AcDbLine
 10
-21.39
 20
0.247
 30
-1.299
 11
-21.333
 21
0.151
 31
0.377
  0
LINE
  5
93
330
1E
100
AcDbEntity
  8
default
  6
Continuous
 62
     5
100
AcDbLine
 10
21.333
 20
0.151
 30
0.377
 11
21.329
 21
0.157
 31
0.51
  0
LINE
  5
94
330
1E
100
AcDbEntity
  8
default
  6
Continuous
 62
     5
100
AcDbLine
 10
-21.333
 20
0.151
 30
0.377
 11
-21.329
 21
0.157
 31
0.51
  0
LINE
  5
95
330
1E
100
AcDbEntity
  8
default
  6
Continuous
 62
     5
100
AcDbLine
 10
21.329
 20
0.157
 30
0.51
 11
21.265
 21
0.291
 31
2.384999999999999
  0
LINE
  5
96
330
1E
100
AcDbEntity
  8
default
  6
Continuous
 62
     5
100
AcDbLine
 10
-21.329
 20
0.157
 30
0.51
 11
-21.265
 21
0.291
 31
2.384999999999999
  0
LINE
  5
97
330
1E
100
AcDbEntity
  8
default
  6
Continuous
 62
     5
100
AcDbLine
 10
21.265
 20
0.291
 30
2.384999999999999
 11
21.23699999999999
 21
0.5670000000000001
 31
3.22
  0
LINE
  5
98
330
1E
100
AcDbEntity
  8
default
  6
Continuous
 62
     5
100
AcDbLine
 10
-21.265
 20
0.291
 30
2.384999999999999
 11
-21.23699999999999
 21
0.5670000000000001
 31
3.22
  0
LINE
  5
99
330
1E
100
AcDbEntity
  8
default
  6
Continuous
 62
     5
100
AcDbLine
 10
21.23699999999999
 20
0.5670000000000001
 30
3.22
 11
21.201
 21
0.99
 31
4.251999999999999
  0
LINE
  5
9A
330
1E
100
AcDbEntity
  8
default
  6
Continuous
 62
     5
100
AcDbLine
 10
-21.23699999999999
 20
0.5670000000000001
 30
3.22
 11
-21.201
 21
0.99
 31
4.251999999999999
  0
LINE
  5
9B
330
1E
100
AcDbEntity
  8
default
  6
Continuous
 62
     5
100
AcDbLine
 10
21.201
 20
0.99
 30
4.251999999999999
 11
21.169
 21
1.56
 31
5.189
  0
LINE
  5
9C
330
1E
100
AcDbEntity
  8
default
  6
Continuous
 62
     5
100
AcDbLine
 10
-21.201
 20
0.99
 30
4.251999999999999
 11
-21.169
 21
1.56
 31
5.189
  0
LINE
  5
9D
330
1E
100
AcDbEntity
  8
default
  6
Continuous
 62
     5
100
AcDbLine
 10
21.169
 20
1.56
 30
5.189
 11
21.14
 21
2.282999999999999
 31
6.065999999999999
  0
LINE
  5
9E
330
1E
100
AcDbEntity
  8
default
  6
Continuous
 62
     5
100
AcDbLine
 10
-21.169
 20
1.56
 30
5.189
 11
-21.14
 21
2.282999999999999
 31
6.065999999999999
  0
LINE
  5
9F
330
1E
100
AcDbEntity
  8
default
  6
Continuous
 62
     5
100
AcDbLine
 10
21.14
 20
2.282999999999999
 30
6.065999999999999
 11
21.11199999999999
 21
3.153999999999999
 31
6.865
  0
LINE
  5
A0
330
1E
100
AcDbEntity
  8
default
  6
Continuous
 62
     5
100
AcDbLine
 10
-21.14
 20
2.282999999999999
 30
6.065999999999999
 11
-21.11199999999999
 21
3.153999999999999
 31
6.865
  0
LINE
  5
A1
330
1E
100
AcDbEntity
  8
default
  6
Continuous
 62
     5
100
AcDbLine
 10
21.11199999999999
 20
3.153999999999999
 30
6.865
 11
21.087
 21
4.173
 31
7.622
  0
LINE
  5
A2
330
1E
100
AcDbEntity
  8
default
  6
Continuous
 62
     5
100
AcDbLine
 10
-21.11199999999999
 20
3.153999999999999
 30
6.865
 11
-21.087
 21
4.173
 31
7.622
  0
LINE
  5
A3
330
1E
100
AcDbEntity
  8
default
  6
Continuous
 62
     5
100
AcDbLine
 10
21.087
 20
4.173
 30
7.622
 11
21.07299999999999
 21
4.810999999999999
 31
8.032
  0
LINE
  5
A4
330
1E
100
AcDbEntity
  8
default
  6
Continuous
 62
     5
100
AcDbLine
 10
-21.087
 20
4.173
 30
7.622
 11
-21.07299999999999
 21
4.810999999999999
 31
8.032
  0
LINE
  5
A5
330
1E
100
AcDbEntity
  8
default
  6
Continuous
 62
     5
100
AcDbLine
 10
-21.333
 20
291.4019999999999
 30
0.377
 11
21.333
 21
291.4019999999999
 31
0.377
  0
LINE
  5
A6
330
1E
100
AcDbEntity
  8
default
  6
Continuous
 62
     5
100
AcDbLine
 10
21.333
 20
291.4019999999999
 30
0.377
 11
-21.333
 21
291.4019999999999
 31
0.377
  0
LINE
  5
A7
330
1E
100
AcDbEntity
  8
default
  6
Continuous
 62
     5
100
AcDbLine
 10
-21.359
 20
288.0229999999999
 30
-0.377
 11
21.359
 21
288.0229999999999
 31
-0.377
  0
LINE
  5
A8
330
1E
100
AcDbEntity
  8
default
  6
Continuous
 62
     5
100
AcDbLine
 10
21.359
 20
288.0229999999999
 30
-0.377
 11
-21.359
 21
288.0229999999999
 31
-0.377
  0
LINE
  5
A9
330
1E
100
AcDbEntity
  8
default
  6
Continuous
 62
     5
100
AcDbLine
 10
-21.40199999999999
 20
282.2649999999999
 30
-1.648
 11
21.40199999999999
 21
282.2649999999999
 31
-1.648
  0
LINE
  5
AA
330
1E
100
AcDbEntity
  8
default
  6
Continuous
 62
     5
100
AcDbLine
 10
21.40199999999999
 20
282.2649999999999
 30
-1.648
 11
-21.40199999999999
 21
282.2649999999999
 31
-1.648
  0
LINE
  5
AB
330
1E
100
AcDbEntity
  8
default
  6
Continuous
 62
     5
100
AcDbLine
 10
-21.453
 20
275.517
 30
-3.128999999999999
 11
21.453
 21
275.517
 31
-3.128999999999999
  0
LINE
  5
AC
330
1E
100
AcDbEntity
  8
default
  6
Continuous
 62
     5
100
AcDbLine
 10
21.453
 20
275.517
 30
-3.128999999999999
 11
-21.453
 21
275.517
 31
-3.128999999999999
  0
LINE
  5
AD
330
1E
100
AcDbEntity
  8
default
  6
Continuous
 62
     5
100
AcDbLine
 10
-21.51
 20
267.735
 30
-4.814
 11
21.51
 21
267.735
 31
-4.814
  0
LINE
  5
AE
330
1E
100
AcDbEntity
  8
default
  6
Continuous
 62
     5
100
AcDbLine
 10
21.51
 20
267.735
 30
-4.814
 11
-21.51
 21
267.735
 31
-4.814
  0
LINE
  5
AF
330
1E
100
AcDbEntity
  8
default
  6
Continuous
 62
     5
100
AcDbLine
 10
-21.572
 20
259.2099999999999
 30
-6.637999999999999
 11
21.572
 21
259.2099999999999
 31
-6.637999999999999
  0
LINE
  5
B0
330
1E
100
AcDbEntity
  8
default
  6
Continuous
 62
     5
100
AcDbLine
 10
21.572
 20
259.2099999999999
 30
-6.637999999999999
 11
-21.572
 21
259.2099999999999
 31
-6.637999999999999
  0
LINE
  5
B1
330
1E
100
AcDbEntity
  8
default
  6
Continuous
 62
     5
100
AcDbLine
 10
-21.635
 20
250.4399999999999
 30
-8.487999999999999
 11
21.635
 21
250.4399999999999
 31
-8.487999999999999
  0
LINE
  5
B2
330
1E
100
AcDbEntity
  8
default
  6
Continuous
 62
     5
100
AcDbLine
 10
21.635
 20
250.4399999999999
 30
-8.487999999999999
 11
-21.635
 21
250.4399999999999
 31
-8.487999999999999
  0
LINE
  5
B3
330
1E
100
AcDbEntity
  8
default
  6
Continuous
 62
     5
100
AcDbLine
 10
-21.697
 20
241.735
 30
-10.29299999999999
 11
21.697
 21
241.735
 31
-10.29299999999999
  0
LINE
  5
B4
330
1E
100
AcDbEntity
  8
default
  6
Continuous
 62
     5
100
AcDbLine
 10
21.697
 20
241.735
 30
-10.29299999999999
 11
-21.697
 21
241.735
 31
-10.29299999999999
  0
LINE
  5
B5
330
1E
100
AcDbEntity
  8
default
  6
Continuous
 62
     5
100
AcDbLine
 10
-21.75699999999999
 20
233.0929999999999
 30
-12.052
 11
21.75699999999999
 21
233.0929999999999
 31
-12.052
  0
LINE
  5
B6
330
1E
100
AcDbEntity
  8
default
  6
Continuous
 62
     5
100
AcDbLine
 10
21.75699999999999
 20
233.0929999999999
 30
-12.052
 11
-21.75699999999999
 21
233.0929999999999
 31
-12.052
  0
LINE
  5
B7
330
1E
100
AcDbEntity
  8
default
  6
Continuous
 62
     5
100
AcDbLine
 10
-21.815
 20
224.432
 30
-13.782
 11
21.815
 21
224.432
 31
-13.782
  0
LINE
  5
B8
330
1E
100
AcDbEntity
  8
default
  6
Continuous
 62
     5
100
AcDbLine
 10
21.815
 20
224.432
 30
-13.782
 11
-21.815
 21
224.432
 31
-13.782
  0
LINE
  5
B9
330
1E
100
AcDbEntity
  8
default
  6
Continuous
 62
     5
100
AcDbLine
 10
-21.873
 20
215.709
 30
-15.484
 11
21.873
 21
215.709
 31
-15.484
  0
LINE
  5
BA
330
1E
100
AcDbEntity
  8
default
  6
Continuous
 62
     5
100
AcDbLine
 10
21.873
 20
215.709
 30
-15.484
 11
-21.873
 21
215.709
 31
-15.484
  0
LINE
  5
BB
330
1E
100
AcDbEntity
  8
default
  6
Continuous
 62
     5
100
AcDbLine
 10
-21.93
 20
206.91
 30
-17.153
 11
21.93
 21
206.91
 31
-17.153
  0
LINE
  5
BC
330
1E
100
AcDbEntity
  8
default
  6
Continuous
 62
     5
100
AcDbLine
 10
21.93
 20
206.91
 30
-17.153
 11
-21.93
 21
206.91
 31
-17.153
  0
LINE
  5
BD
330
1E
100
AcDbEntity
  8
default
  6
Continuous
 62
     5
100
AcDbLine
 10
-21.986
 20
198.0679999999999
 30
-18.789
 11
21.986
 21
198.0679999999999
 31
-18.789
  0
LINE
  5
BE
330
1E
100
AcDbEntity
  8
default
  6
Continuous
 62
     5
100
AcDbLine
 10
21.986
 20
198.0679999999999
 30
-18.789
 11
-21.986
 21
198.0679999999999
 31
-18.789
  0
LINE
  5
BF
330
1E
100
AcDbEntity
  8
default
  6
Continuous
 62
     5
100
AcDbLine
 10
-22.04
 20
189.202
 30
-20.37999999999999
 11
22.04
 21
189.202
 31
-20.37999999999999
  0
LINE
  5
C0
330
1E
100
AcDbEntity
  8
default
  6
Continuous
 62
     5
100
AcDbLine
 10
22.04
 20
189.202
 30
-20.37999999999999
 11
-22.04
 21
189.202
 31
-20.37999999999999
  0
LINE
  5
C1
330
1E
100
AcDbEntity
  8
default
  6
Continuous
 62
     5
100
AcDbLine
 10
-22.093
 20
180.333
 30
-21.933
 11
22.093
 21
180.333
 31
-21.933
  0
LINE
  5
C2
330
1E
100
AcDbEntity
  8
default
  6
Continuous
 62
     5
100
AcDbLine
 10
22.093
 20
180.333
 30
-21.933
 11
-22.093
 21
180.333
 31
-21.933
  0
LINE
  5
C3
330
1E
100
AcDbEntity
  8
default
  6
Continuous
 62
     5
100
AcDbLine
 10
-22.144
 20
171.476
 30
-23.443
 11
22.144
 21
171.476
 31
-23.443
  0
LINE
  5
C4
330
1E
100
AcDbEntity
  8
default
  6
Continuous
 62
     5
100
AcDbLine
 10
22.144
 20
171.476
 30
-23.443
 11
-22.144
 21
171.476
 31
-23.443
  0
LINE
  5
C5
330
1E
100
AcDbEntity
  8
default
  6
Continuous
 62
     5
100
AcDbLine
 10
-22.195
 20
162.6399999999999
 30
-24.918
 11
22.195
 21
162.6399999999999
 31
-24.918
  0
LINE
  5
C6
330
1E
100
AcDbEntity
  8
default
  6
Continuous
 62
     5
100
AcDbLine
 10
22.195
 20
162.6399999999999
 30
-24.918
 11
-22.195
 21
162.6399999999999
 31
-24.918
  0
LINE
  5
C7
330
1E
100
AcDbEntity
  8
default
  6
Continuous
 62
     5
100
AcDbLine
 10
-22.243
 20
153.829
 30
-26.348
 11
22.243
 21
153.829
 31
-26.348
  0
LINE
  5
C8
330
1E
100
AcDbEntity
  8
default
  6
Continuous
 62
     5
100
AcDbLine
 10
22.243
 20
153.829
 30
-26.348
 11
-22.243
 21
153.829
 31
-26.348
  0
LINE
  5
C9
330
1E
100
AcDbEntity
  8
default
  6
Continuous
 62
     5
100
AcDbLine
 10
-22.29
 20
145.0539999999999
 30
-27.732
 11
22.29
 21
145.0539999999999
 31
-27.732
  0
LINE
  5
CA
330
1E
100
AcDbEntity
  8
default
  6
Continuous
 62
     5
100
AcDbLine
 10
22.29
 20
145.0539999999999
 30
-27.732
 11
-22.29
 21
145.0539999999999
 31
-27.732
  0
LINE
  5
CB
330
1E
100
AcDbEntity
  8
default
  6
Continuous
 62
     5
100
AcDbLine
 10
-22.336
 20
136.3189999999999
 30
-29.064
 11
22.336
 21
136.3189999999999
 31
-29.064
  0
LINE
  5
CC
330
1E
100
AcDbEntity
  8
default
  6
Continuous
 62
     5
100
AcDbLine
 10
22.336
 20
136.3189999999999
 30
-29.064
 11
-22.336
 21
136.3189999999999
 31
-29.064
  0
LINE
  5
CD
330
1E
100
AcDbEntity
  8
default
  6
Continuous
 62
     5
100
AcDbLine
 10
-22.379
 20
127.637
 30
-30.339
 11
22.379
 21
127.637
 31
-30.339
  0
LINE
  5
CE
330
1E
100
AcDbEntity
  8
default
  6
Continuous
 62
     5
100
AcDbLine
 10
22.379
 20
127.637
 30
-30.339
 11
-22.379
 21
127.637
 31
-30.339
  0
LINE
  5
CF
330
1E
100
AcDbEntity
  8
default
  6
Continuous
 62
     5
100
AcDbLine
 10
-22.42
 20
119.0339999999999
 30
-31.548
 11
22.42
 21
119.0339999999999
 31
-31.548
  0
LINE
  5
D0
330
1E
100
AcDbEntity
  8
default
  6
Continuous
 62
     5
100
AcDbLine
 10
22.42
 20
119.0339999999999
 30
-31.548
 11
-22.42
 21
119.0339999999999
 31
-31.548
  0
LINE
  5
D1
330
1E
100
AcDbEntity
  8
default
  6
Continuous
 62
     5
100
AcDbLine
 10
-22.459
 20
110.5229999999999
 30
-32.68399999999999
 11
22.459
 21
110.5229999999999
 31
-32.68399999999999
  0
LINE
  5
D2
330
1E
100
AcDbEntity
  8
default
  6
Continuous
 62
     5
100
AcDbLine
 10
22.459
 20
110.5229999999999
 30
-32.68399999999999
 11
-22.459
 21
110.5229999999999
 31
-32.68399999999999
  0
LINE
  5
D3
330
1E
100
AcDbEntity
  8
default
  6
Continuous
 62
     5
100
AcDbLine
 10
-22.495
 20
102.147
 30
-33.744
 11
22.495
 21
102.147
 31
-33.744
  0
LINE
  5
D4
330
1E
100
AcDbEntity
  8
default
  6
Continuous
 62
     5
100
AcDbLine
 10
22.495
 20
102.147
 30
-33.744
 11
-22.495
 21
102.147
 31
-33.744
  0
LINE
  5
D5
330
1E
100
AcDbEntity
  8
default
  6
Continuous
 62
     5
100
AcDbLine
 10
-22.528
 20
93.963
 30
-34.708
 11
22.528
 21
93.963
 31
-34.708
  0
LINE
  5
D6
330
1E
100
AcDbEntity
  8
default
  6
Continuous
 62
     5
100
AcDbLine
 10
22.528
 20
93.963
 30
-34.708
 11
-22.528
 21
93.963
 31
-34.708
  0
LINE
  5
D7
330
1E
100
AcDbEntity
  8
default
  6
Continuous
 62
     5
100
AcDbLine
 10
-22.557
 20
86.03799999999999
 30
-35.552
 11
22.557
 21
86.03799999999999
 31
-35.552
  0
LINE
  5
D8
330
1E
100
AcDbEntity
  8
default
  6
Continuous
 62
     5
100
AcDbLine
 10
22.557
 20
86.03799999999999
 30
-35.552
 11
-22.557
 21
86.03799999999999
 31
-35.552
  0
LINE
  5
D9
330
1E
100
AcDbEntity
  8
default
  6
Continuous
 62
     5
100
AcDbLine
 10
-22.581
 20
78.45399999999999
 30
-36.25399999999999
 11
22.581
 21
78.45399999999999
 31
-36.25399999999999
  0
LINE
  5
DA
330
1E
100
AcDbEntity
  8
default
  6
Continuous
 62
     5
100
AcDbLine
 10
22.581
 20
78.45399999999999
 30
-36.25399999999999
 11
-22.581
 21
78.45399999999999
 31
-36.25399999999999
  0
LINE
  5
DB
330
1E
100
AcDbEntity
  8
default
  6
Continuous
 62
     5
100
AcDbLine
 10
-22.599
 20
71.266
 30
-36.801
 11
22.599
 21
71.266
 31
-36.801
  0
LINE
  5
DC
330
1E
100
AcDbEntity
  8
default
  6
Continuous
 62
     5
100
AcDbLine
 10
22.599
 20
71.266
 30
-36.801
 11
-22.599
 21
71.266
 31
-36.801
  0
LINE
  5
DD
330
1E
100
AcDbEntity
  8
default
  6
Continuous
 62
     5
100
AcDbLine
 10
-22.611
 20
64.506
 30
-37.15999999999999
 11
22.611
 21
64.506
 31
-37.15999999999999
  0
LINE
  5
DE
330
1E
100
AcDbEntity
  8
default
  6
Continuous
 62
     5
100
AcDbLine
 10
22.611
 20
64.506
 30
-37.15999999999999
 11
-22.611
 21
64.506
 31
-37.15999999999999
  0
LINE
  5
DF
330
1E
100
AcDbEntity
  8
default
  6
Continuous
 62
     5
100
AcDbLine
 10
-22.61699999999999
 20
58.18
 30
-37.31199999999999
 11
22.61699999999999
 21
58.18
 31
-37.31199999999999
  0
LINE
  5
E0
330
1E
100
AcDbEntity
  8
default
  6
Continuous
 62
     5
100
AcDbLine
 10
22.61699999999999
 20
58.18
 30
-37.31199999999999
 11
-22.61699999999999
 21
58.18
 31
-37.31199999999999
  0
LINE
  5
E1
330
1E
100
AcDbEntity
  8
default
  6
Continuous
 62
     5
100
AcDbLine
 10
-22.614
 20
52.291
 30
-37.234
 11
22.614
 21
52.291
 31
-37.234
  0
LINE
  5
E2
330
1E
100
AcDbEntity
  8
default
  6
Continuous
 62
     5
100
AcDbLine
 10
22.614
 20
52.291
 30
-37.234
 11
-22.614
 21
52.291
 31
-37.234
  0
LINE
  5
E3
330
1E
100
AcDbEntity
  8
default
  6
Continuous
 62
     5
100
AcDbLine
 10
-22.603
 20
46.835
 30
-36.927
 11
22.603
 21
46.835
 31
-36.927
  0
LINE
  5
E4
330
1E
100
AcDbEntity
  8
default
  6
Continuous
 62
     5
100
AcDbLine
 10
22.603
 20
46.835
 30
-36.927
 11
-22.603
 21
46.835
 31
-36.927
  0
LINE
  5
E5
330
1E
100
AcDbEntity
  8
default
  6
Continuous
 62
     5
100
AcDbLine
 10
-22.585
 20
41.79999999999999
 30
-36.38
 11
22.585
 21
41.79999999999999
 31
-36.38
  0
LINE
  5
E6
330
1E
100
AcDbEntity
  8
default
  6
Continuous
 62
     5
100
AcDbLine
 10
22.585
 20
41.79999999999999
 30
-36.38
 11
-22.585
 21
41.79999999999999
 31
-36.38
  0
LINE
  5
E7
330
1E
100
AcDbEntity
  8
default
  6
Continuous
 62
     5
100
AcDbLine
 10
-22.559
 20
37.17499999999999
 30
-35.607
 11
22.559
 21
37.17499999999999
 31
-35.607
  0
LINE
  5
E8
330
1E
100
AcDbEntity
  8
default
  6
Continuous
 62
     5
100
AcDbLine
 10
22.559
 20
37.17499999999999
 30
-35.607
 11
-22.559
 21
37.17499999999999
 31
-35.607
  0
LINE
  5
E9
330
1E
100
AcDbEntity
  8
default
  6
Continuous
 62
     5
100
AcDbLine
 10
-22.52499999999999
 20
32.934
 30
-34.611
 11
22.52499999999999
 21
32.934
 31
-34.611
  0
LINE
  5
EA
330
1E
100
AcDbEntity
  8
default
  6
Continuous
 62
     5
100
AcDbLine
 10
22.52499999999999
 20
32.934
 30
-34.611
 11
-22.52499999999999
 21
32.934
 31
-34.611
  0
LINE
  5
EB
330
1E
100
AcDbEntity
  8
default
  6
Continuous
 62
     5
100
AcDbLine
 10
-22.48299999999999
 20
29.05699999999999
 30
-33.398
 11
22.48299999999999
 21
29.05699999999999
 31
-33.398
  0
LINE
  5
EC
330
1E
100
AcDbEntity
  8
default
  6
Continuous
 62
     5
100
AcDbLine
 10
22.48299999999999
 20
29.05699999999999
 30
-33.398
 11
-22.48299999999999
 21
29.05699999999999
 31
-33.398
  0
LINE
  5
ED
330
1E
100
AcDbEntity
  8
default
  6
Continuous
 62
     5
100
AcDbLine
 10
-22.435
 20
25.516
 30
-31.98199999999999
 11
22.435
 21
25.516
 31
-31.98199999999999
  0
LINE
  5
EE
330
1E
100
AcDbEntity
  8
default
  6
Continuous
 62
     5
100
AcDbLine
 10
22.435
 20
25.516
 30
-31.98199999999999
 11
-22.435
 21
25.516
 31
-31.98199999999999
  0
LINE
  5
EF
330
1E
100
AcDbEntity
  8
default
  6
Continuous
 62
     5
100
AcDbLine
 10
-22.381
 20
22.29699999999999
 30
-30.394
 11
22.381
 21
22.29699999999999
 31
-30.394
  0
LINE
  5
F0
330
1E
100
AcDbEntity
  8
default
  6
Continuous
 62
     5
100
AcDbLine
 10
22.381
 20
22.29699999999999
 30
-30.394
 11
-22.381
 21
22.29699999999999
 31
-30.394
  0
LINE
  5
F1
330
1E
100
AcDbEntity
  8
default
  6
Continuous
 62
     5
100
AcDbLine
 10
-22.32299999999999
 20
19.39099999999999
 30
-28.686
 11
22.32299999999999
 21
19.39099999999999
 31
-28.686
  0
LINE
  5
F2
330
1E
100
AcDbEntity
  8
default
  6
Continuous
 62
     5
100
AcDbLine
 10
22.32299999999999
 20
19.39099999999999
 30
-28.686
 11
-22.32299999999999
 21
19.39099999999999
 31
-28.686
  0
LINE
  5
F3
330
1E
100
AcDbEntity
  8
default
  6
Continuous
 62
     5
100
AcDbLine
 10
-22.26199999999999
 20
16.775
 30
-26.901
 11
22.26199999999999
 21
16.775
 31
-26.901
  0
LINE
  5
F4
330
1E
100
AcDbEntity
  8
default
  6
Continuous
 62
     5
100
AcDbLine
 10
22.26199999999999
 20
16.775
 30
-26.901
 11
-22.26199999999999
 21
16.775
 31
-26.901
  0
LINE
  5
F5
330
1E
100
AcDbEntity
  8
default
  6
Continuous
 62
     5
100
AcDbLine
 10
-22.2
 20
14.43999999999999
 30
-25.083
 11
22.2
 21
14.43999999999999
 31
-25.083
  0
LINE
  5
F6
330
1E
100
AcDbEntity
  8
default
  6
Continuous
 62
     5
100
AcDbLine
 10
22.2
 20
14.43999999999999
 30
-25.083
 11
-22.2
 21
14.43999999999999
 31
-25.083
  0
LINE
  5
F7
330
1E
100
AcDbEntity
  8
default
  6
Continuous
 62
     5
100
AcDbLine
 10
-22.138
 20
12.354
 30
-23.249
 11
22.138
 21
12.354
 31
-23.249
  0
LINE
  5
F8
330
1E
100
AcDbEntity
  8
default
  6
Continuous
 62
     5
100
AcDbLine
 10
22.138
 20
12.354
 30
-23.249
 11
-22.138
 21
12.354
 31
-23.249
  0
LINE
  5
F9
330
1E
100
AcDbEntity
  8
default
  6
Continuous
 62
     5
100
AcDbLine
 10
-22.076
 20
10.502
 30
-21.425
 11
22.076
 21
10.502
 31
-21.425
  0
LINE
  5
FA
330
1E
100
AcDbEntity
  8
default
  6
Continuous
 62
     5
100
AcDbLine
 10
22.076
 20
10.502
 30
-21.425
 11
-22.076
 21
10.502
 31
-21.425
  0
LINE
  5
FB
330
1E
100
AcDbEntity
  8
default
  6
Continuous
 62
     5
100
AcDbLine
 10
-22.014
 20
8.862
 30
-19.624
 11
22.014
 21
8.862
 31
-19.624
  0
LINE
  5
FC
330
1E
100
AcDbEntity
  8
default
  6
Continuous
 62
     5
100
AcDbLine
 10
22.014
 20
8.862
 30
-19.624
 11
-22.014
 21
8.862
 31
-19.624
  0
LINE
  5
FD
330
1E
100
AcDbEntity
  8
default
  6
Continuous
 62
     5
100
AcDbLine
 10
-21.954
 20
7.412
 30
-17.861
 11
21.954
 21
7.412
 31
-17.861
  0
LINE
  5
FE
330
1E
100
AcDbEntity
  8
default
  6
Continuous
 62
     5
100
AcDbLine
 10
21.954
 20
7.412
 30
-17.861
 11
-21.954
 21
7.412
 31
-17.861
  0
LINE
  5
FF
330
1E
100
AcDbEntity
  8
default
  6
Continuous
 62
     5
100
AcDbLine
 10
-21.895
 20
6.136
 30
-16.134
 11
21.895
 21
6.136
 31
-16.134
  0
LINE
  5
100
330
1E
100
AcDbEntity
  8
default
  6
Continuous
 62
     5
100
AcDbLine
 10
21.895
 20
6.136
 30
-16.134
 11
-21.895
 21
6.136
 31
-16.134
  0
LINE
  5
101
330
1E
100
AcDbEntity
  8
default
  6
Continuous
 62
     5
100
AcDbLine
 10
-21.838
 20
5.017999999999999
 30
-14.45199999999999
 11
21.838
 21
5.017999999999999
 31
-14.45199999999999
  0
LINE
  5
102
330
1E
100
AcDbEntity
  8
default
  6
Continuous
 62
     5
100
AcDbLine
 10
21.838
 20
5.017999999999999
 30
-14.45199999999999
 11
-21.838
 21
5.017999999999999
 31
-14.45199999999999
  0
LINE
  5
103
330
1E
100
AcDbEntity
  8
default
  6
Continuous
 62
     5
100
AcDbLine
 10
-21.78199999999999
 20
4.038999999999999
 30
-12.80299999999999
 11
21.78199999999999
 21
4.038999999999999
 31
-12.80299999999999
  0
LINE
  5
104
330
1E
100
AcDbEntity
  8
default
  6
Continuous
 62
     5
100
AcDbLine
 10
21.78199999999999
 20
4.038999999999999
 30
-12.80299999999999
 11
-21.78199999999999
 21
4.038999999999999
 31
-12.80299999999999
  0
LINE
  5
105
330
1E
100
AcDbEntity
  8
default
  6
Continuous
 62
     5
100
AcDbLine
 10
-21.72699999999999
 20
3.191
 30
-11.19199999999999
 11
21.72699999999999
 21
3.191
 31
-11.19199999999999
  0
LINE
  5
106
330
1E
100
AcDbEntity
  8
default
  6
Continuous
 62
     5
100
AcDbLine
 10
21.72699999999999
 20
3.191
 30
-11.19199999999999
 11
-21.72699999999999
 21
3.191
 31
-11.19199999999999
  0
LINE
  5
107
330
1E
100
AcDbEntity
  8
default
  6
Continuous
 62
     5
100
AcDbLine
 10
-21.674
 20
2.468999999999999
 30
-9.624
 11
21.674
 21
2.468999999999999
 31
-9.624
  0
LINE
  5
108
330
1E
100
AcDbEntity
  8
default
  6
Continuous
 62
     5
100
AcDbLine
 10
21.674
 20
2.468999999999999
 30
-9.624
 11
-21.674
 21
2.468999999999999
 31
-9.624
  0
LINE
  5
109
330
1E
100
AcDbEntity
  8
default
  6
Continuous
 62
     5
100
AcDbLine
 10
-21.62199999999999
 20
1.863
 30
-8.102999999999999
 11
21.62199999999999
 21
1.863
 31
-8.102999999999999
  0
LINE
  5
10A
330
1E
100
AcDbEntity
  8
default
  6
Continuous
 62
     5
100
AcDbLine
 10
21.62199999999999
 20
1.863
 30
-8.102999999999999
 11
-21.62199999999999
 21
1.863
 31
-8.102999999999999
  0
LINE
  5
10B
330
1E
100
AcDbEntity
  8
default
  6
Continuous
 62
     5
100
AcDbLine
 10
-21.572
 20
1.370999999999999
 30
-6.641
 11
21.572
 21
1.370999999999999
 31
-6.641
  0
LINE
  5
10C
330
1E
100
AcDbEntity
  8
default
  6
Continuous
 62
     5
100
AcDbLine
 10
21.572
 20
1.370999999999999
 30
-6.641
 11
-21.572
 21
1.370999999999999
 31
-6.641
  0
LINE
  5
10D
330
1E
100
AcDbEntity
  8
default
  6
Continuous
 62
     5
100
AcDbLine
 10
-21.524
 20
0.9779999999999999
 30
-5.217999999999999
 11
21.524
 21
0.9779999999999999
 31
-5.217999999999999
  0
LINE
  5
10E
330
1E
100
AcDbEntity
  8
default
  6
Continuous
 62
     5
100
AcDbLine
 10
21.524
 20
0.9779999999999999
 30
-5.217999999999999
 11
-21.524
 21
0.9779999999999999
 31
-5.217999999999999
  0
LINE
  5
10F
330
1E
100
AcDbEntity
  8
default
  6
Continuous
 62
     5
100
AcDbLine
 10
-21.478
 20
0.666
 30
-3.859999999999999
 11
21.478
 21
0.666
 31
-3.859999999999999
  0
LINE
  5
110
330
1E
100
AcDbEntity
  8
default
  6
Continuous
 62
     5
100
AcDbLine
 10
21.478
 20
0.666
 30
-3.859999999999999
 11
-21.478
 21
0.666
 31
-3.859999999999999
  0
LINE
  5
111
330
1E
100
AcDbEntity
  8
default
  6
Continuous
 62
     5
100
AcDbLine
 10
-21.43
 20
0.425
 30
-2.471999999999999
 11
21.43
 21
0.425
 31
-2.471999999999999
  0
LINE
  5
112
330
1E
100
AcDbEntity
  8
default
  6
Continuous
 62
     5
100
AcDbLine
 10
21.43
 20
0.425
 30
-2.471999999999999
 11
-21.43
 21
0.425
 31
-2.471999999999999
  0
LINE
  5
113
330
1E
100
AcDbEntity
  8
default
  6
Continuous
 62
     5
100
AcDbLine
 10
-21.39
 20
0.247
 30
-1.299
 11
21.39
 21
0.247
 31
-1.299
  0
LINE
  5
114
330
1E
100
AcDbEntity
  8
default
  6
Continuous
 62
     5
100
AcDbLine
 10
21.39
 20
0.247
 30
-1.299
 11
-21.39
 21
0.247
 31
-1.299
  0
LINE
  5
115
330
1E
100
AcDbEntity
  8
default
  6
Continuous
 62
     5
100
AcDbLine
 10
-21.333
 20
0.151
 30
0.377
 11
21.333
 21
0.151
 31
0.377
  0
LINE
  5
116
330
1E
100
AcDbEntity
  8
default
  6
Continuous
 62
     5
100
AcDbLine
 10
21.333
 20
0.151
 30
0.377
 11
-21.333
 21
0.151
 31
0.377
  0
LINE
  5
117
330
1E
100
AcDbEntity
  8
default
  6
Continuous
 62
     5
100
AcDbLine
 10
-21.329
 20
0.157
 30
0.51
 11
21.329
 21
0.157
 31
0.51
  0
LINE
  5
118
330
1E
100
AcDbEntity
  8
default
  6
Continuous
 62
     5
100
AcDbLine
 10
21.329
 20
0.157
 30
0.51
 11
-21.329
 21
0.157
 31
0.51
  0
LINE
  5
119
330
1E
100
AcDbEntity
  8
default
  6
Continuous
 62
     5
100
AcDbLine
 10
-21.265
 20
0.291
 30
2.384999999999999
 11
21.265
 21
0.291
 31
2.384999999999999
  0
LINE
  5
11A
330
1E
100
AcDbEntity
  8
default
  6
Continuous
 62
     5
100
AcDbLine
 10
21.265
 20
0.291
 30
2.384999999999999
 11
-21.265
 21
0.291
 31
2.384999999999999
  0
LINE
  5
11B
330
1E
100
AcDbEntity
  8
default
  6
Continuous
 62
     5
100
AcDbLine
 10
-21.23699999999999
 20
0.5670000000000001
 30
3.22
 11
21.23699999999999
 21
0.5670000000000001
 31
3.22
  0
LINE
  5
11C
330
1E
100
AcDbEntity
  8
default
  6
Continuous
 62
     5
100
AcDbLine
 10
21.23699999999999
 20
0.5670000000000001
 30
3.22
 11
-21.23699999999999
 21
0.5670000000000001
 31
3.22
  0
LINE
  5
11D
330
1E
100
AcDbEntity
  8
default
  6
Continuous
 62
     5
100
AcDbLine
 10
-21.201
 20
0.99
 30
4.251999999999999
 11
21.201
 21
0.99
 31
4.251999999999999
  0
LINE
  5
11E
330
1E
100
AcDbEntity
  8
default
  6
Continuous
 62
     5
100
AcDbLine
 10
21.201
 20
0.99
 30
4.251999999999999
 11
-21.201
 21
0.99
 31
4.251999999999999
  0
LINE
  5
11F
330
1E
100
AcDbEntity
  8
default
  6
Continuous
 62
     5
100
AcDbLine
 10
-21.169
 20
1.56
 30
5.189
 11
21.169
 21
1.56
 31
5.189
  0
LINE
  5
120
330
1E
100
AcDbEntity
  8
default
  6
Continuous
 62
     5
100
AcDbLine
 10
21.169
 20
1.56
 30
5.189
 11
-21.169
 21
1.56
 31
5.189
  0
LINE
  5
121
330
1E
100
AcDbEntity
  8
default
  6
Continuous
 62
     5
100
AcDbLine
 10
-21.14
 20
2.282999999999999
 30
6.065999999999999
 11
21.14
 21
2.282999999999999
 31
6.065999999999999
  0
LINE
  5
122
330
1E
100
AcDbEntity
  8
default
  6
Continuous
 62
     5
100
AcDbLine
 10
21.14
 20
2.282999999999999
 30
6.065999999999999
 11
-21.14
 21
2.282999999999999
 31
6.065999999999999
  0
LINE
  5
123
330
1E
100
AcDbEntity
  8
default
  6
Continuous
 62
     5
100
AcDbLine
 10
-21.11199999999999
 20
3.153999999999999
 30
6.865
 11
21.11199999999999
 21
3.153999999999999
 31
6.865
  0
LINE
  5
124
330
1E
100
AcDbEntity
  8
default
  6
Continuous
 62
     5
100
AcDbLine
 10
21.11199999999999
 20
3.153999999999999
 30
6.865
 11
-21.11199999999999
 21
3.153999999999999
 31
6.865
  0
LINE
  5
125
330
1E
100
AcDbEntity
  8
default
  6
Continuous
 62
     5
100
AcDbLine
 10
-21.087
 20
4.173
 30
7.622
 11
21.087
 21
4.173
 31
7.622
  0
LINE
  5
126
330
1E
100
AcDbEntity
  8
default
  6
Continuous
 62
     5
100
AcDbLine
 10
21.087
 20
4.173
 30
7.622
 11
-21.087
 21
4.173
 31
7.622
  0
LINE
  5
127
330
1E
100
AcDbEntity
  8
default
  6
Continuous
 62
     1
100
AcDbLine
 10
21.07299999999999
 20
4.810999999999999
 30
8.032
 11
21.061
 21
5.328999999999999
 31
8.365
  0
LINE
  5
128
330
1E
100
AcDbEntity
  8
default
  6
Continuous
 62
     1
100
AcDbLine
 10
-21.07299999999999
 20
4.810999999999999
 30
8.032
 11
-21.061
 21
5.328999999999999
 31
8.365
  0
LINE
  5
129
330
1E
100
AcDbEntity
  8
default
  6
Continuous
 62
     1
100
AcDbLine
 10
21.061
 20
5.328999999999999
 30
8.365
 11
21.03599999999999
 21
6.607999999999999
 31
9.099999999999999
  0
LINE
  5
12A
330
1E
100
AcDbEntity
  8
default
  6
Continuous
 62
     1
100
AcDbLine
 10
-21.061
 20
5.328999999999999
 30
8.365
 11
-21.03599999999999
 21
6.607999999999999
 31
9.099999999999999
  0
LINE
  5
12B
330
1E
100
AcDbEntity
  8
default
  6
Continuous
 62
     1
100
AcDbLine
 10
21.03599999999999
 20
6.607999999999999
 30
9.099999999999999
 11
21.01199999999999
 21
8.019999999999999
 31
9.820999999999999
  0
LINE
  5
12C
330
1E
100
AcDbEntity
  8
default
  6
Continuous
 62
     1
100
AcDbLine
 10
-21.03599999999999
 20
6.607999999999999
 30
9.099999999999999
 11
-21.01199999999999
 21
8.019999999999999
 31
9.820999999999999
  0
LINE
  5
12D
330
1E
100
AcDbEntity
  8
default
  6
Continuous
 62
     1
100
AcDbLine
 10
21.01199999999999
 20
8.019999999999999
 30
9.820999999999999
 11
20.988
 21
9.589999999999999
 31
10.52599999999999
  0
LINE
  5
12E
330
1E
100
AcDbEntity
  8
default
  6
Continuous
 62
     1
100
AcDbLine
 10
-21.01199999999999
 20
8.019999999999999
 30
9.820999999999999
 11
-20.988
 21
9.589999999999999
 31
10.52599999999999
  0
LINE
  5
12F
330
1E
100
AcDbEntity
  8
default
  6
Continuous
 62
     1
100
AcDbLine
 10
20.988
 20
9.589999999999999
 30
10.52599999999999
 11
20.964
 21
11.33799999999999
 31
11.22099999999999
  0
LINE
  5
130
330
1E
100
AcDbEntity
  8
default
  6
Continuous
 62
     1
100
AcDbLine
 10
-20.988
 20
9.589999999999999
 30
10.52599999999999
 11
-20.964
 21
11.33799999999999
 31
11.22099999999999
  0
LINE
  5
131
330
1E
100
AcDbEntity
  8
default
  6
Continuous
 62
     1
100
AcDbLine
 10
20.964
 20
11.33799999999999
 30
11.22099999999999
 11
20.941
 21
13.298
 31
11.91
  0
LINE
  5
132
330
1E
100
AcDbEntity
  8
default
  6
Continuous
 62
     1
100
AcDbLine
 10
-20.964
 20
11.33799999999999
 30
11.22099999999999
 11
-20.941
 21
13.298
 31
11.91
  0
LINE
  5
133
330
1E
100
AcDbEntity
  8
default
  6
Continuous
 62
     1
100
AcDbLine
 10
20.941
 20
13.298
 30
11.91
 11
20.919
 21
15.296
 31
12.54099999999999
  0
LINE
  5
134
330
1E
100
AcDbEntity
  8
default
  6
Continuous
 62
     1
100
AcDbLine
 10
-20.941
 20
13.298
 30
11.91
 11
-20.919
 21
15.296
 31
12.54099999999999
  0
LINE
  5
135
330
1E
100
AcDbEntity
  8
default
  6
Continuous
 62
     1
100
AcDbLine
 10
20.919
 20
15.296
 30
12.54099999999999
 11
20.889
 21
18.5
 31
13.439
  0
LINE
  5
136
330
1E
100
AcDbEntity
  8
default
  6
Continuous
 62
     1
100
AcDbLine
 10
-20.919
 20
15.296
 30
12.54099999999999
 11
-20.889
 21
18.5
 31
13.439
  0
LINE
  5
137
330
1E
100
AcDbEntity
  8
default
  6
Continuous
 62
     3
100
AcDbLine
 10
20.889
 20
18.5
 30
13.439
 11
20.868
 21
20.84099999999999
 31
14.032
  0
LINE
  5
138
330
1E
100
AcDbEntity
  8
default
  6
Continuous
 62
     3
100
AcDbLine
 10
-20.889
 20
18.5
 30
13.439
 11
-20.868
 21
20.84099999999999
 31
14.032
  0
LINE
  5
139
330
1E
100
AcDbEntity
  8
default
  6
Continuous
 62
     3
100
AcDbLine
 10
20.868
 20
20.84099999999999
 30
14.032
 11
20.843
 21
24.089
 31
14.77599999999999
  0
LINE
  5
13A
330
1E
100
AcDbEntity
  8
default
  6
Continuous
 62
     3
100
AcDbLine
 10
-20.868
 20
20.84099999999999
 30
14.032
 11
-20.843
 21
24.089
 31
14.77599999999999
  0
LINE
  5
13B
330
1E
100
AcDbEntity
  8
default
  6
Continuous
 62
     3
100
AcDbLine
 10
20.843
 20
24.089
 30
14.77599999999999
 11
20.81699999999999
 21
27.814
 31
15.54599999999999
  0
LINE
  5
13C
330
1E
100
AcDbEntity
  8
default
  6
Continuous
 62
     3
100
AcDbLine
 10
-20.843
 20
24.089
 30
14.77599999999999
 11
-20.81699999999999
 21
27.814
 31
15.54599999999999
  0
LINE
  5
13D
330
1E
100
AcDbEntity
  8
default
  6
Continuous
 62
     3
100
AcDbLine
 10
20.81699999999999
 20
27.814
 30
15.54599999999999
 11
20.79
 21
32.113
 31
16.34099999999999
  0
LINE
  5
13E
330
1E
100
AcDbEntity
  8
default
  6
Continuous
 62
     3
100
AcDbLine
 10
-20.81699999999999
 20
27.814
 30
15.54599999999999
 11
-20.79
 21
32.113
 31
16.34099999999999
  0
LINE
  5
13F
330
1E
100
AcDbEntity
  8
default
  6
Continuous
 62
     3
100
AcDbLine
 10
20.79
 20
32.113
 30
16.34099999999999
 11
20.76199999999999
 21
37.064
 31
17.153
  0
LINE
  5
140
330
1E
100
AcDbEntity
  8
default
  6
Continuous
 62
     3
100
AcDbLine
 10
-20.79
 20
32.113
 30
16.34099999999999
 11
-20.76199999999999
 21
37.064
 31
17.153
  0
LINE
  5
141
330
1E
100
AcDbEntity
  8
default
  6
Continuous
 62
     3
100
AcDbLine
 10
20.76199999999999
 20
37.064
 30
17.153
 11
20.735
 21
42.723
 31
17.961
  0
LINE
  5
142
330
1E
100
AcDbEntity
  8
default
  6
Continuous
 62
     3
100
AcDbLine
 10
-20.76199999999999
 20
37.064
 30
17.153
 11
-20.735
 21
42.723
 31
17.961
  0
LINE
  5
143
330
1E
100
AcDbEntity
  8
default
  6
Continuous
 62
     3
100
AcDbLine
 10
20.735
 20
42.723
 30
17.961
 11
20.70899999999999
 21
49.078
 31
18.722
  0
LINE
  5
144
330
1E
100
AcDbEntity
  8
default
  6
Continuous
 62
     3
100
AcDbLine
 10
-20.735
 20
42.723
 30
17.961
 11
-20.70899999999999
 21
49.078
 31
18.722
  0
LINE
  5
145
330
1E
100
AcDbEntity
  8
default
  6
Continuous
 62
     3
100
AcDbLine
 10
20.70899999999999
 20
49.078
 30
18.722
 11
20.68499999999999
 21
56.045
 31
19.407
  0
LINE
  5
146
330
1E
100
AcDbEntity
  8
default
  6
Continuous
 62
     3
100
AcDbLine
 10
-20.70899999999999
 20
49.078
 30
18.722
 11
-20.68499999999999
 21
56.045
 31
19.407
  0
LINE
  5
147
330
1E
100
AcDbEntity
  8
default
  6
Continuous
 62
     3
100
AcDbLine
 10
20.68499999999999
 20
56.045
 30
19.407
 11
20.665
 21
63.466
 31
19.996
  0
LINE
  5
148
330
1E
100
AcDbEntity
  8
default
  6
Continuous
 62
     3
100
AcDbLine
 10
-20.68499999999999
 20
56.045
 30
19.407
 11
-20.665
 21
63.466
 31
19.996
  0
LINE
  5
149
330
1E
100
AcDbEntity
  8
default
  6
Continuous
 62
     3
100
AcDbLine
 10
20.665
 20
63.466
 30
19.996
 11
20.649
 21
71.236
 31
20.48099999999999
  0
LINE
  5
14A
330
1E
100
AcDbEntity
  8
default
  6
Continuous
 62
     3
100
AcDbLine
 10
-20.665
 20
63.466
 30
19.996
 11
-20.649
 21
71.236
 31
20.48099999999999
  0
LINE
  5
14B
330
1E
100
AcDbEntity
  8
default
  6
Continuous
 62
     3
100
AcDbLine
 10
20.649
 20
71.236
 30
20.48099999999999
 11
20.636
 21
79.26300000000001
 31
20.853
  0
LINE
  5
14C
330
1E
100
AcDbEntity
  8
default
  6
Continuous
 62
     3
100
AcDbLine
 10
-20.649
 20
71.236
 30
20.48099999999999
 11
-20.636
 21
79.26300000000001
 31
20.853
  0
LINE
  5
14D
330
1E
100
AcDbEntity
  8
default
  6
Continuous
 62
     3
100
AcDbLine
 10
20.636
 20
79.26300000000001
 30
20.853
 11
20.62699999999999
 21
87.459
 31
21.11199999999999
  0
LINE
  5
14E
330
1E
100
AcDbEntity
  8
default
  6
Continuous
 62
     3
100
AcDbLine
 10
-20.636
 20
79.26300000000001
 30
20.853
 11
-20.62699999999999
 21
87.459
 31
21.11199999999999
  0
LINE
  5
14F
330
1E
100
AcDbEntity
  8
default
  6
Continuous
 62
     3
100
AcDbLine
 10
20.62699999999999
 20
87.459
 30
21.11199999999999
 11
20.623
 21
95.74200000000001
 31
21.248
  0
LINE
  5
150
330
1E
100
AcDbEntity
  8
default
  6
Continuous
 62
     3
100
AcDbLine
 10
-20.62699999999999
 20
87.459
 30
21.11199999999999
 11
-20.623
 21
95.74200000000001
 31
21.248
  0
LINE
  5
151
330
1E
100
AcDbEntity
  8
default
  6
Continuous
 62
     3
100
AcDbLine
 10
20.623
 20
95.74200000000001
 30
21.248
 11
20.622
 21
104.0489999999999
 31
21.25699999999999
  0
LINE
  5
152
330
1E
100
AcDbEntity
  8
default
  6
Continuous
 62
     3
100
AcDbLine
 10
-20.623
 20
95.74200000000001
 30
21.248
 11
-20.622
 21
104.0489999999999
 31
21.25699999999999
  0
LINE
  5
153
330
1E
100
AcDbEntity
  8
default
  6
Continuous
 62
     3
100
AcDbLine
 10
20.622
 20
104.0489999999999
 30
21.25699999999999
 11
20.62699999999999
 21
112.358
 31
21.131
  0
LINE
  5
154
330
1E
100
AcDbEntity
  8
default
  6
Continuous
 62
     3
100
AcDbLine
 10
-20.622
 20
104.0489999999999
 30
21.25699999999999
 11
-20.62699999999999
 21
112.358
 31
21.131
  0
LINE
  5
155
330
1E
100
AcDbEntity
  8
default
  6
Continuous
 62
     3
100
AcDbLine
 10
20.62699999999999
 20
112.358
 30
21.131
 11
20.635
 21
120.682
 31
20.882
  0
LINE
  5
156
330
1E
100
AcDbEntity
  8
default
  6
Continuous
 62
     3
100
AcDbLine
 10
-20.62699999999999
 20
112.358
 30
21.131
 11
-20.635
 21
120.682
 31
20.882
  0
LINE
  5
157
330
1E
100
AcDbEntity
  8
default
  6
Continuous
 62
     3
100
AcDbLine
 10
20.635
 20
120.682
 30
20.882
 11
20.648
 21
129.047
 31
20.51699999999999
  0
LINE
  5
158
330
1E
100
AcDbEntity
  8
default
  6
Continuous
 62
     3
100
AcDbLine
 10
-20.635
 20
120.682
 30
20.882
 11
-20.648
 21
129.047
 31
20.51699999999999
  0
LINE
  5
159
330
1E
100
AcDbEntity
  8
default
  6
Continuous
 62
     3
100
AcDbLine
 10
20.648
 20
129.047
 30
20.51699999999999
 11
20.664
 21
137.49
 31
20.051
  0
LINE
  5
15A
330
1E
100
AcDbEntity
  8
default
  6
Continuous
 62
     3
100
AcDbLine
 10
-20.648
 20
129.047
 30
20.51699999999999
 11
-20.664
 21
137.49
 31
20.051
  0
LINE
  5
15B
330
1E
100
AcDbEntity
  8
default
  6
Continuous
 62
     3
100
AcDbLine
 10
20.664
 20
137.49
 30
20.051
 11
20.683
 21
146.021
 31
19.49099999999999
  0
LINE
  5
15C
330
1E
100
AcDbEntity
  8
default
  6
Continuous
 62
     3
100
AcDbLine
 10
-20.664
 20
137.49
 30
20.051
 11
-20.683
 21
146.021
 31
19.49099999999999
  0
LINE
  5
15D
330
1E
100
AcDbEntity
  8
default
  6
Continuous
 62
     3
100
AcDbLine
 10
20.683
 20
146.021
 30
19.49099999999999
 11
20.705
 21
154.616
 31
18.84099999999999
  0
LINE
  5
15E
330
1E
100
AcDbEntity
  8
default
  6
Continuous
 62
     3
100
AcDbLine
 10
-20.683
 20
146.021
 30
19.49099999999999
 11
-20.705
 21
154.616
 31
18.84099999999999
  0
LINE
  5
15F
330
1E
100
AcDbEntity
  8
default
  6
Continuous
 62
     3
100
AcDbLine
 10
20.705
 20
154.616
 30
18.84099999999999
 11
20.72999999999999
 21
163.2479999999999
 31
18.10999999999999
  0
LINE
  5
160
330
1E
100
AcDbEntity
  8
default
  6
Continuous
 62
     3
100
AcDbLine
 10
-20.705
 20
154.616
 30
18.84099999999999
 11
-20.72999999999999
 21
163.2479999999999
 31
18.10999999999999
  0
LINE
  5
161
330
1E
100
AcDbEntity
  8
default
  6
Continuous
 62
     3
100
AcDbLine
 10
20.72999999999999
 20
163.2479999999999
 30
18.10999999999999
 11
20.75699999999999
 21
171.893
 31
17.298
  0
LINE
  5
162
330
1E
100
AcDbEntity
  8
default
  6
Continuous
 62
     3
100
AcDbLine
 10
-20.72999999999999
 20
163.2479999999999
 30
18.10999999999999
 11
-20.75699999999999
 21
171.893
 31
17.298
  0
LINE
  5
163
330
1E
100
AcDbEntity
  8
default
  6
Continuous
 62
     3
100
AcDbLine
 10
20.75699999999999
 20
171.893
 30
17.298
 11
20.78699999999999
 21
180.546
 31
16.409
  0
LINE
  5
164
330
1E
100
AcDbEntity
  8
default
  6
Continuous
 62
     3
100
AcDbLine
 10
-20.75699999999999
 20
171.893
 30
17.298
 11
-20.78699999999999
 21
180.546
 31
16.409
  0
LINE
  5
165
330
1E
100
AcDbEntity
  8
default
  6
Continuous
 62
     3
100
AcDbLine
 10
20.78699999999999
 20
180.546
 30
16.409
 11
20.82
 21
189.222
 31
15.445
  0
LINE
  5
166
330
1E
100
AcDbEntity
  8
default
  6
Continuous
 62
     3
100
AcDbLine
 10
-20.78699999999999
 20
180.546
 30
16.409
 11
-20.82
 21
189.222
 31
15.445
  0
LINE
  5
167
330
1E
100
AcDbEntity
  8
default
  6
Continuous
 62
     3
100
AcDbLine
 10
20.82
 20
189.222
 30
15.445
 11
20.85599999999999
 21
197.9279999999999
 31
14.41
  0
LINE
  5
168
330
1E
100
AcDbEntity
  8
default
  6
Continuous
 62
     3
100
AcDbLine
 10
-20.82
 20
189.222
 30
15.445
 11
-20.85599999999999
 21
197.9279999999999
 31
14.41
  0
LINE
  5
169
330
1E
100
AcDbEntity
  8
default
  6
Continuous
 62
     3
100
AcDbLine
 10
20.85599999999999
 20
197.9279999999999
 30
14.41
 11
20.893
 21
206.657
 31
13.304
  0
LINE
  5
16A
330
1E
100
AcDbEntity
  8
default
  6
Continuous
 62
     3
100
AcDbLine
 10
-20.85599999999999
 20
197.9279999999999
 30
14.41
 11
-20.893
 21
206.657
 31
13.304
  0
LINE
  5
16B
330
1E
100
AcDbEntity
  8
default
  6
Continuous
 62
     3
100
AcDbLine
 10
20.893
 20
206.657
 30
13.304
 11
20.933
 21
215.3909999999999
 31
12.14
  0
LINE
  5
16C
330
1E
100
AcDbEntity
  8
default
  6
Continuous
 62
     3
100
AcDbLine
 10
-20.893
 20
206.657
 30
13.304
 11
-20.933
 21
215.3909999999999
 31
12.14
  0
LINE
  5
16D
330
1E
100
AcDbEntity
  8
default
  6
Continuous
 62
     3
100
AcDbLine
 10
20.933
 20
215.3909999999999
 30
12.14
 11
20.97399999999999
 21
224.1
 31
10.921
  0
LINE
  5
16E
330
1E
100
AcDbEntity
  8
default
  6
Continuous
 62
     3
100
AcDbLine
 10
-20.933
 20
215.3909999999999
 30
12.14
 11
-20.97399999999999
 21
224.1
 31
10.921
  0
LINE
  5
16F
330
1E
100
AcDbEntity
  8
default
  6
Continuous
 62
     3
100
AcDbLine
 10
20.97399999999999
 20
224.1
 30
10.921
 11
21.017
 21
232.77
 31
9.662
  0
LINE
  5
170
330
1E
100
AcDbEntity
  8
default
  6
Continuous
 62
     3
100
AcDbLine
 10
-20.97399999999999
 20
224.1
 30
10.921
 11
-21.017
 21
232.77
 31
9.662
  0
LINE
  5
171
330
1E
100
AcDbEntity
  8
default
  6
Continuous
 62
     3
100
AcDbLine
 10
21.017
 20
232.77
 30
9.662
 11
21.061
 21
241.444
 31
8.365
  0
LINE
  5
172
330
1E
100
AcDbEntity
  8
default
  6
Continuous
 62
     3
100
AcDbLine
 10
-21.017
 20
232.77
 30
9.662
 11
-21.061
 21
241.444
 31
8.365
  0
LINE
  5
173
330
1E
100
AcDbEntity
  8
default
  6
Continuous
 62
     3
100
AcDbLine
 10
21.061
 20
241.444
 30
8.365
 11
21.107
 21
250.184
 31
7.03
  0
LINE
  5
174
330
1E
100
AcDbEntity
  8
default
  6
Continuous
 62
     3
100
AcDbLine
 10
-21.061
 20
241.444
 30
8.365
 11
-21.107
 21
250.184
 31
7.03
  0
LINE
  5
175
330
1E
100
AcDbEntity
  8
default
  6
Continuous
 62
     3
100
AcDbLine
 10
21.107
 20
250.184
 30
7.03
 11
21.154
 21
258.997
 31
5.652
  0
LINE
  5
176
330
1E
100
AcDbEntity
  8
default
  6
Continuous
 62
     3
100
AcDbLine
 10
-21.107
 20
250.184
 30
7.03
 11
-21.154
 21
258.997
 31
5.652
  0
LINE
  5
177
330
1E
100
AcDbEntity
  8
default
  6
Continuous
 62
     3
100
AcDbLine
 10
21.154
 20
258.997
 30
5.652
 11
21.2
 21
267.5659999999999
 31
4.286999999999999
  0
LINE
  5
178
330
1E
100
AcDbEntity
  8
default
  6
Continuous
 62
     3
100
AcDbLine
 10
-21.154
 20
258.997
 30
5.652
 11
-21.2
 21
267.5659999999999
 31
4.286999999999999
  0
LINE
  5
179
330
1E
100
AcDbEntity
  8
default
  6
Continuous
 62
     3
100
AcDbLine
 10
21.2
 20
267.5659999999999
 30
4.286999999999999
 11
21.243
 21
275.401
 31
3.023
  0
LINE
  5
17A
330
1E
100
AcDbEntity
  8
default
  6
Continuous
 62
     3
100
AcDbLine
 10
-21.2
 20
267.5659999999999
 30
4.286999999999999
 11
-21.243
 21
275.401
 31
3.023
  0
LINE
  5
17B
330
1E
100
AcDbEntity
  8
default
  6
Continuous
 62
     3
100
AcDbLine
 10
21.243
 20
275.401
 30
3.023
 11
21.28099999999999
 21
282.2009999999999
 31
1.906999999999999
  0
LINE
  5
17C
330
1E
100
AcDbEntity
  8
default
  6
Continuous
 62
     3
100
AcDbLine
 10
-21.243
 20
275.401
 30
3.023
 11
-21.28099999999999
 21
282.2009999999999
 31
1.906999999999999
  0
LINE
  5
17D
330
1E
100
AcDbEntity
  8
default
  6
Continuous
 62
     3
100
AcDbLine
 10
21.28099999999999
 20
282.2009999999999
 30
1.906999999999999
 11
21.314
 21
288.0
 31
0.9459999999999999
  0
LINE
  5
17E
330
1E
100
AcDbEntity
  8
default
  6
Continuous
 62
     3
100
AcDbLine
 10
-21.28099999999999
 20
282.2009999999999
 30
1.906999999999999
 11
-21.314
 21
288.0
 31
0.9459999999999999
  0
LINE
  5
17F
330
1E
100
AcDbEntity
  8
default
  6
Continuous
 62
     3
100
AcDbLine
 10
21.314
 20
288.0
 30
0.9459999999999999
 11
21.333
 21
291.4019999999999
 31
0.377
  0
LINE
  5
180
330
1E
100
AcDbEntity
  8
default
  6
Continuous
 62
     3
100
AcDbLine
 10
-21.314
 20
288.0
 30
0.9459999999999999
 11
-21.333
 21
291.4019999999999
 31
0.377
  0
LINE
  5
181
330
1E
100
AcDbEntity
  8
default
  6
Continuous
 62
     3
100
AcDbLine
 10
-20.889
 20
18.5
 30
13.439
 11
20.889
 21
18.5
 31
13.439
  0
LINE
  5
182
330
1E
100
AcDbEntity
  8
default
  6
Continuous
 62
     3
100
AcDbLine
 10
20.889
 20
18.5
 30
13.439
 11
-20.889
 21
18.5
 31
13.439
  0
LINE
  5
183
330
1E
100
AcDbEntity
  8
default
  6
Continuous
 62
     3
100
AcDbLine
 10
-20.868
 20
20.84099999999999
 30
14.032
 11
20.868
 21
20.84099999999999
 31
14.032
  0
LINE
  5
184
330
1E
100
AcDbEntity
  8
default
  6
Continuous
 62
     3
100
AcDbLine
 10
20.868
 20
20.84099999999999
 30
14.032
 11
-20.868
 21
20.84099999999999
 31
14.032
  0
LINE
  5
185
330
1E
100
AcDbEntity
  8
default
  6
Continuous
 62
     3
100
AcDbLine
 10
-20.843
 20
24.089
 30
14.77599999999999
 11
20.843
 21
24.089
 31
14.77599999999999
  0
LINE
  5
186
330
1E
100
AcDbEntity
  8
default
  6
Continuous
 62
     3
100
AcDbLine
 10
20.843
 20
24.089
 30
14.77599999999999
 11
-20.843
 21
24.089
 31
14.77599999999999
  0
LINE
  5
187
330
1E
100
AcDbEntity
  8
default
  6
Continuous
 62
     3
100
AcDbLine
 10
-20.81699999999999
 20
27.814
 30
15.54599999999999
 11
20.81699999999999
 21
27.814
 31
15.54599999999999
  0
LINE
  5
188
330
1E
100
AcDbEntity
  8
default
  6
Continuous
 62
     3
100
AcDbLine
 10
20.81699999999999
 20
27.814
 30
15.54599999999999
 11
-20.81699999999999
 21
27.814
 31
15.54599999999999
  0
LINE
  5
189
330
1E
100
AcDbEntity
  8
default
  6
Continuous
 62
     3
100
AcDbLine
 10
-20.79
 20
32.113
 30
16.34099999999999
 11
20.79
 21
32.113
 31
16.34099999999999
  0
LINE
  5
18A
330
1E
100
AcDbEntity
  8
default
  6
Continuous
 62
     3
100
AcDbLine
 10
20.79
 20
32.113
 30
16.34099999999999
 11
-20.79
 21
32.113
 31
16.34099999999999
  0
LINE
  5
18B
330
1E
100
AcDbEntity
  8
default
  6
Continuous
 62
     3
100
AcDbLine
 10
-20.76199999999999
 20
37.064
 30
17.153
 11
20.76199999999999
 21
37.064
 31
17.153
  0
LINE
  5
18C
330
1E
100
AcDbEntity
  8
default
  6
Continuous
 62
     3
100
AcDbLine
 10
20.76199999999999
 20
37.064
 30
17.153
 11
-20.76199999999999
 21
37.064
 31
17.153
  0
LINE
  5
18D
330
1E
100
AcDbEntity
  8
default
  6
Continuous
 62
     3
100
AcDbLine
 10
-20.735
 20
42.723
 30
17.961
 11
20.735
 21
42.723
 31
17.961
  0
LINE
  5
18E
330
1E
100
AcDbEntity
  8
default
  6
Continuous
 62
     3
100
AcDbLine
 10
20.735
 20
42.723
 30
17.961
 11
-20.735
 21
42.723
 31
17.961
  0
LINE
  5
18F
330
1E
100
AcDbEntity
  8
default
  6
Continuous
 62
     3
100
AcDbLine
 10
-20.70899999999999
 20
49.078
 30
18.722
 11
20.70899999999999
 21
49.078
 31
18.722
  0
LINE
  5
190
330
1E
100
AcDbEntity
  8
default
  6
Continuous
 62
     3
100
AcDbLine
 10
20.70899999999999
 20
49.078
 30
18.722
 11
-20.70899999999999
 21
49.078
 31
18.722
  0
LINE
  5
191
330
1E
100
AcDbEntity
  8
default
  6
Continuous
 62
     3
100
AcDbLine
 10
-20.68499999999999
 20
56.045
 30
19.407
 11
20.68499999999999
 21
56.045
 31
19.407
  0
LINE
  5
192
330
1E
100
AcDbEntity
  8
default
  6
Continuous
 62
     3
100
AcDbLine
 10
20.68499999999999
 20
56.045
 30
19.407
 11
-20.68499999999999
 21
56.045
 31
19.407
  0
LINE
  5
193
330
1E
100
AcDbEntity
  8
default
  6
Continuous
 62
     3
100
AcDbLine
 10
-20.665
 20
63.466
 30
19.996
 11
20.665
 21
63.466
 31
19.996
  0
LINE
  5
194
330
1E
100
AcDbEntity
  8
default
  6
Continuous
 62
     3
100
AcDbLine
 10
20.665
 20
63.466
 30
19.996
 11
-20.665
 21
63.466
 31
19.996
  0
LINE
  5
195
330
1E
100
AcDbEntity
  8
default
  6
Continuous
 62
     3
100
AcDbLine
 10
-20.649
 20
71.236
 30
20.48099999999999
 11
20.649
 21
71.236
 31
20.48099999999999
  0
LINE
  5
196
330
1E
100
AcDbEntity
  8
default
  6
Continuous
 62
     3
100
AcDbLine
 10
20.649
 20
71.236
 30
20.48099999999999
 11
-20.649
 21
71.236
 31
20.48099999999999
  0
LINE
  5
197
330
1E
100
AcDbEntity
  8
default
  6
Continuous
 62
     3
100
AcDbLine
 10
-20.636
 20
79.26300000000001
 30
20.853
 11
20.636
 21
79.26300000000001
 31
20.853
  0
LINE
  5
198
330
1E
100
AcDbEntity
  8
default
  6
Continuous
 62
     3
100
AcDbLine
 10
20.636
 20
79.26300000000001
 30
20.853
 11
-20.636
 21
79.26300000000001
 31
20.853
  0
LINE
  5
199
330
1E
100
AcDbEntity
  8
default
  6
Continuous
 62
     3
100
AcDbLine
 10
-20.62699999999999
 20
87.459
 30
21.11199999999999
 11
20.62699999999999
 21
87.459
 31
21.11199999999999
  0
LINE
  5
19A
330
1E
100
AcDbEntity
  8
default
  6
Continuous
 62
     3
100
AcDbLine
 10
20.62699999999999
 20
87.459
 30
21.11199999999999
 11
-20.62699999999999
 21
87.459
 31
21.11199999999999
  0
LINE
  5
19B
330
1E
100
AcDbEntity
  8
default
  6
Continuous
 62
     3
100
AcDbLine
 10
-20.623
 20
95.74200000000001
 30
21.248
 11
20.623
 21
95.74200000000001
 31
21.248
  0
LINE
  5
19C
330
1E
100
AcDbEntity
  8
default
  6
Continuous
 62
     3
100
AcDbLine
 10
20.623
 20
95.74200000000001
 30
21.248
 11
-20.623
 21
95.74200000000001
 31
21.248
  0
LINE
  5
19D
330
1E
100
AcDbEntity
  8
default
  6
Continuous
 62
     3
100
AcDbLine
 10
-20.622
 20
104.0489999999999
 30
21.25699999999999
 11
20.622
 21
104.0489999999999
 31
21.25699999999999
  0
LINE
  5
19E
330
1E
100
AcDbEntity
  8
default
  6
Continuous
 62
     3
100
AcDbLine
 10
20.622
 20
104.0489999999999
 30
21.25699999999999
 11
-20.622
 21
104.0489999999999
 31
21.25699999999999
  0
LINE
  5
19F
330
1E
100
AcDbEntity
  8
default
  6
Continuous
 62
     3
100
AcDbLine
 10
-20.62699999999999
 20
112.358
 30
21.131
 11
20.62699999999999
 21
112.358
 31
21.131
  0
LINE
  5
1A0
330
1E
100
AcDbEntity
  8
default
  6
Continuous
 62
     3
100
AcDbLine
 10
20.62699999999999
 20
112.358
 30
21.131
 11
-20.62699999999999
 21
112.358
 31
21.131
  0
LINE
  5
1A1
330
1E
100
AcDbEntity
  8
default
  6
Continuous
 62
     3
100
AcDbLine
 10
-20.635
 20
120.682
 30
20.882
 11
20.635
 21
120.682
 31
20.882
  0
LINE
  5
1A2
330
1E
100
AcDbEntity
  8
default
  6
Continuous
 62
     3
100
AcDbLine
 10
20.635
 20
120.682
 30
20.882
 11
-20.635
 21
120.682
 31
20.882
  0
LINE
  5
1A3
330
1E
100
AcDbEntity
  8
default
  6
Continuous
 62
     3
100
AcDbLine
 10
-20.648
 20
129.047
 30
20.51699999999999
 11
20.648
 21
129.047
 31
20.51699999999999
  0
LINE
  5
1A4
330
1E
100
AcDbEntity
  8
default
  6
Continuous
 62
     3
100
AcDbLine
 10
20.648
 20
129.047
 30
20.51699999999999
 11
-20.648
 21
129.047
 31
20.51699999999999
  0
LINE
  5
1A5
330
1E
100
AcDbEntity
  8
default
  6
Continuous
 62
     3
100
AcDbLine
 10
-20.664
 20
137.49
 30
20.051
 11
20.664
 21
137.49
 31
20.051
  0
LINE
  5
1A6
330
1E
100
AcDbEntity
  8
default
  6
Continuous
 62
     3
100
AcDbLine
 10
20.664
 20
137.49
 30
20.051
 11
-20.664
 21
137.49
 31
20.051
  0
LINE
  5
1A7
330
1E
100
AcDbEntity
  8
default
  6
Continuous
 62
     3
100
AcDbLine
 10
-20.683
 20
146.021
 30
19.49099999999999
 11
20.683
 21
146.021
 31
19.49099999999999
  0
LINE
  5
1A8
330
1E
100
AcDbEntity
  8
default
  6
Continuous
 62
     3
100
AcDbLine
 10
20.683
 20
146.021
 30
19.49099999999999
 11
-20.683
 21
146.021
 31
19.49099999999999
  0
LINE
  5
1A9
330
1E
100
AcDbEntity
  8
default
  6
Continuous
 62
     3
100
AcDbLine
 10
-20.705
 20
154.616
 30
18.84099999999999
 11
20.705
 21
154.616
 31
18.84099999999999
  0
LINE
  5
1AA
330
1E
100
AcDbEntity
  8
default
  6
Continuous
 62
     3
100
AcDbLine
 10
20.705
 20
154.616
 30
18.84099999999999
 11
-20.705
 21
154.616
 31
18.84099999999999
  0
LINE
  5
1AB
330
1E
100
AcDbEntity
  8
default
  6
Continuous
 62
     3
100
AcDbLine
 10
-20.72999999999999
 20
163.2479999999999
 30
18.10999999999999
 11
20.72999999999999
 21
163.2479999999999
 31
18.10999999999999
  0
LINE
  5
1AC
330
1E
100
AcDbEntity
  8
default
  6
Continuous
 62
     3
100
AcDbLine
 10
20.72999999999999
 20
163.2479999999999
 30
18.10999999999999
 11
-20.72999999999999
 21
163.2479999999999
 31
18.10999999999999
  0
LINE
  5
1AD
330
1E
100
AcDbEntity
  8
default
  6
Continuous
 62
     3
100
AcDbLine
 10
-20.75699999999999
 20
171.893
 30
17.298
 11
20.75699999999999
 21
171.893
 31
17.298
  0
LINE
  5
1AE
330
1E
100
AcDbEntity
  8
default
  6
Continuous
 62
     3
100
AcDbLine
 10
20.75699999999999
 20
171.893
 30
17.298
 11
-20.75699999999999
 21
171.893
 31
17.298
  0
LINE
  5
1AF
330
1E
100
AcDbEntity
  8
default
  6
Continuous
 62
     3
100
AcDbLine
 10
-20.78699999999999
 20
180.546
 30
16.409
 11
20.78699999999999
 21
180.546
 31
16.409
  0
LINE
  5
1B0
330
1E
100
AcDbEntity
  8
default
  6
Continuous
 62
     3
100
AcDbLine
 10
20.78699999999999
 20
180.546
 30
16.409
 11
-20.78699999999999
 21
180.546
 31
16.409
  0
LINE
  5
1B1
330
1E
100
AcDbEntity
  8
default
  6
Continuous
 62
     3
100
AcDbLine
 10
-20.82
 20
189.222
 30
15.445
 11
20.82
 21
189.222
 31
15.445
  0
LINE
  5
1B2
330
1E
100
AcDbEntity
  8
default
  6
Continuous
 62
     3
100
AcDbLine
 10
20.82
 20
189.222
 30
15.445
 11
-20.82
 21
189.222
 31
15.445
  0
LINE
  5
1B3
330
1E
100
AcDbEntity
  8
default
  6
Continuous
 62
     3
100
AcDbLine
 10
-20.85599999999999
 20
197.9279999999999
 30
14.41
 11
20.85599999999999
 21
197.9279999999999
 31
14.41
  0
LINE
  5
1B4
330
1E
100
AcDbEntity
  8
default
  6
Continuous
 62
     3
100
AcDbLine
 10
20.85599999999999
 20
197.9279999999999
 30
14.41
 11
-20.85599999999999
 21
197.9279999999999
 31
14.41
  0
LINE
  5
1B5
330
1E
100
AcDbEntity
  8
default
  6
Continuous
 62
     3
100
AcDbLine
 10
-20.893
 20
206.657
 30
13.304
 11
20.893
 21
206.657
 31
13.304
  0
LINE
  5
1B6
330
1E
100
AcDbEntity
  8
default
  6
Continuous
 62
     3
100
AcDbLine
 10
20.893
 20
206.657
 30
13.304
 11
-20.893
 21
206.657
 31
13.304
  0
LINE
  5
1B7
330
1E
100
AcDbEntity
  8
default
  6
Continuous
 62
     3
100
AcDbLine
 10
-20.933
 20
215.3909999999999
 30
12.14
 11
20.933
 21
215.3909999999999
 31
12.14
  0
LINE
  5
1B8
330
1E
100
AcDbEntity
  8
default
  6
Continuous
 62
     3
100
AcDbLine
 10
20.933
 20
215.3909999999999
 30
12.14
 11
-20.933
 21
215.3909999999999
 31
12.14
  0
LINE
  5
1B9
330
1E
100
AcDbEntity
  8
default
  6
Continuous
 62
     3
100
AcDbLine
 10
-20.97399999999999
 20
224.1
 30
10.921
 11
20.97399999999999
 21
224.1
 31
10.921
  0
LINE
  5
1BA
330
1E
100
AcDbEntity
  8
default
  6
Continuous
 62
     3
100
AcDbLine
 10
20.97399999999999
 20
224.1
 30
10.921
 11
-20.97399999999999
 21
224.1
 31
10.921
  0
LINE
  5
1BB
330
1E
100
AcDbEntity
  8
default
  6
Continuous
 62
     3
100
AcDbLine
 10
-21.017
 20
232.77
 30
9.662
 11
21.017
 21
232.77
 31
9.662
  0
LINE
  5
1BC
330
1E
100
AcDbEntity
  8
default
  6
Continuous
 62
     3
100
AcDbLine
 10
21.017
 20
232.77
 30
9.662
 11
-21.017
 21
232.77
 31
9.662
  0
LINE
  5
1BD
330
1E
100
AcDbEntity
  8
default
  6
Continuous
 62
     3
100
AcDbLine
 10
-21.061
 20
241.444
 30
8.365
 11
21.061
 21
241.444
 31
8.365
  0
LINE
  5
1BE
330
1E
100
AcDbEntity
  8
default
  6
Continuous
 62
     3
100
AcDbLine
 10
21.061
 20
241.444
 30
8.365
 11
-21.061
 21
241.444
 31
8.365
  0
LINE
  5
1BF
330
1E
100
AcDbEntity
  8
default
  6
Continuous
 62
     3
100
AcDbLine
 10
-21.107
 20
250.184
 30
7.03
 11
21.107
 21
250.184
 31
7.03
  0
LINE
  5
1C0
330
1E
100
AcDbEntity
  8
default
  6
Continuous
 62
     3
100
AcDbLine
 10
21.107
 20
250.184
 30
7.03
 11
-21.107
 21
250.184
 31
7.03
  0
LINE
  5
1C1
330
1E
100
AcDbEntity
  8
default
  6
Continuous
 62
     3
100
AcDbLine
 10
-21.154
 20
258.997
 30
5.652
 11
21.154
 21
258.997
 31
5.652
  0
LINE
  5
1C2
330
1E
100
AcDbEntity
  8
default
  6
Continuous
 62
     3
100
AcDbLine
 10
21.154
 20
258.997
 30
5.652
 11
-21.154
 21
258.997
 31
5.652
  0
LINE
  5
1C3
330
1E
100
AcDbEntity
  8
default
  6
Continuous
 62
     3
100
AcDbLine
 10
-21.2
 20
267.5659999999999
 30
4.286999999999999
 11
21.2
 21
267.5659999999999
 31
4.286999999999999
  0
LINE
  5
1C4
330
1E
100
AcDbEntity
  8
default
  6
Continuous
 62
     3
100
AcDbLine
 10
21.2
 20
267.5659999999999
 30
4.286999999999999
 11
-21.2
 21
267.5659999999999
 31
4.286999999999999
  0
LINE
  5
1C5
330
1E
100
AcDbEntity
  8
default
  6
Continuous
 62
     3
100
AcDbLine
 10
-21.243
 20
275.401
 30
3.023
 11
21.243
 21
275.401
 31
3.023
  0
LINE
  5
1C6
330
1E
100
AcDbEntity
  8
default
  6
Continuous
 62
     3
100
AcDbLine
 10
21.243
 20
275.401
 30
3.023
 11
-21.243
 21
275.401
 31
3.023
  0
LINE
  5
1C7
330
1E
100
AcDbEntity
  8
default
  6
Continuous
 62
     3
100
AcDbLine
 10
-21.28099999999999
 20
282.2009999999999
 30
1.906999999999999
 11
21.28099999999999
 21
282.2009999999999
 31
1.906999999999999
  0
LINE
  5
1C8
330
1E
100
AcDbEntity
  8
default
  6
Continuous
 62
     3
100
AcDbLine
 10
21.28099999999999
 20
282.2009999999999
 30
1.906999999999999
 11
-21.28099999999999
 21
282.2009999999999
 31
1.906999999999999
  0
LINE
  5
1C9
330
1E
100
AcDbEntity
  8
default
  6
Continuous
 62
     3
100
AcDbLine
 10
-21.314
 20
288.0
 30
0.9459999999999999
 11
21.314
 21
288.0
 31
0.9459999999999999
  0
LINE
  5
1CA
330
1E
100
AcDbEntity
  8
default
  6
Continuous
 62
     3
100
AcDbLine
 10
21.314
 20
288.0
 30
0.9459999999999999
 11
-21.314
 21
288.0
 31
0.9459999999999999
  0
LINE
  5
1CB
330
1E
100
AcDbEntity
  8
default
  6
Continuous
 62
     5
100
AcDbLine
 10
62.11899999999999
 20
290.194
 30
18.384
 11
62.21
 21
286.894
 31
17.52799999999999
  0
LINE
  5
1CC
330
1E
100
AcDbEntity
  8
default
  6
Continuous
 62
     5
100
AcDbLine
 10
-62.11899999999999
 20
290.194
 30
18.384
 11
-62.21
 21
286.894
 31
17.52799999999999
  0
LINE
  5
1CD
330
1E
100
AcDbEntity
  8
default
  6
Continuous
 62
     5
100
AcDbLine
 10
62.21
 20
286.894
 30
17.52799999999999
 11
62.36399999999999
 21
281.2679999999999
 31
16.078
  0
LINE
  5
1CE
330
1E
100
AcDbEntity
  8
default
  6
Continuous
 62
     5
100
AcDbLine
 10
-62.21
 20
286.894
 30
17.52799999999999
 11
-62.36399999999999
 21
281.2679999999999
 31
16.078
  0
LINE
  5
1CF
330
1E
100
AcDbEntity
  8
default
  6
Continuous
 62
     5
100
AcDbLine
 10
62.36399999999999
 20
281.2679999999999
 30
16.078
 11
62.543
 21
274.674
 31
14.387
  0
LINE
  5
1D0
330
1E
100
AcDbEntity
  8
default
  6
Continuous
 62
     5
100
AcDbLine
 10
-62.36399999999999
 20
281.2679999999999
 30
16.078
 11
-62.543
 21
274.674
 31
14.387
  0
LINE
  5
1D1
330
1E
100
AcDbEntity
  8
default
  6
Continuous
 62
     5
100
AcDbLine
 10
62.543
 20
274.674
 30
14.387
 11
62.748
 21
267.0679999999999
 31
12.455
  0
LINE
  5
1D2
330
1E
100
AcDbEntity
  8
default
  6
Continuous
 62
     5
100
AcDbLine
 10
-62.543
 20
274.674
 30
14.387
 11
-62.748
 21
267.0679999999999
 31
12.455
  0
LINE
  5
1D3
330
1E
100
AcDbEntity
  8
default
  6
Continuous
 62
     5
100
AcDbLine
 10
62.748
 20
267.0679999999999
 30
12.455
 11
62.971
 21
258.735
 31
10.355
  0
LINE
  5
1D4
330
1E
100
AcDbEntity
  8
default
  6
Continuous
 62
     5
100
AcDbLine
 10
-62.748
 20
267.0679999999999
 30
12.455
 11
-62.971
 21
258.735
 31
10.355
  0
LINE
  5
1D5
330
1E
100
AcDbEntity
  8
default
  6
Continuous
 62
     5
100
AcDbLine
 10
62.971
 20
258.735
 30
10.355
 11
63.198
 21
250.1609999999999
 31
8.214999999999999
  0
LINE
  5
1D6
330
1E
100
AcDbEntity
  8
default
  6
Continuous
 62
     5
100
AcDbLine
 10
-62.971
 20
258.735
 30
10.355
 11
-63.198
 21
250.1609999999999
 31
8.214999999999999
  0
LINE
  5
1D7
330
1E
100
AcDbEntity
  8
default
  6
Continuous
 62
     5
100
AcDbLine
 10
63.198
 20
250.1609999999999
 30
8.214999999999999
 11
63.42100000000001
 21
241.6479999999999
 31
6.117
  0
LINE
  5
1D8
330
1E
100
AcDbEntity
  8
default
  6
Continuous
 62
     5
100
AcDbLine
 10
-63.198
 20
250.1609999999999
 30
8.214999999999999
 11
-63.42100000000001
 21
241.6479999999999
 31
6.117
  0
LINE
  5
1D9
330
1E
100
AcDbEntity
  8
default
  6
Continuous
 62
     5
100
AcDbLine
 10
63.42100000000001
 20
241.6479999999999
 30
6.117
 11
63.64
 21
233.1949999999999
 31
4.059
  0
LINE
  5
1DA
330
1E
100
AcDbEntity
  8
default
  6
Continuous
 62
     5
100
AcDbLine
 10
-63.42100000000001
 20
241.6479999999999
 30
6.117
 11
-63.64
 21
233.1949999999999
 31
4.059
  0
LINE
  5
1DB
330
1E
100
AcDbEntity
  8
default
  6
Continuous
 62
     5
100
AcDbLine
 10
63.64
 20
233.1949999999999
 30
4.059
 11
63.856
 21
224.7209999999999
 31
2.023
  0
LINE
  5
1DC
330
1E
100
AcDbEntity
  8
default
  6
Continuous
 62
     5
100
AcDbLine
 10
-63.64
 20
233.1949999999999
 30
4.059
 11
-63.856
 21
224.7209999999999
 31
2.023
  0
LINE
  5
1DD
330
1E
100
AcDbEntity
  8
default
  6
Continuous
 62
     5
100
AcDbLine
 10
63.856
 20
224.7209999999999
 30
2.023
 11
64.07
 21
216.184
 31
0.005
  0
LINE
  5
1DE
330
1E
100
AcDbEntity
  8
default
  6
Continuous
 62
     5
100
AcDbLine
 10
-63.856
 20
224.7209999999999
 30
2.023
 11
-64.07
 21
216.184
 31
0.005
  0
LINE
  5
1DF
330
1E
100
AcDbEntity
  8
default
  6
Continuous
 62
     5
100
AcDbLine
 10
64.07
 20
216.184
 30
0.005
 11
64.282
 21
207.569
 31
-1.993999999999999
  0
LINE
  5
1E0
330
1E
100
AcDbEntity
  8
default
  6
Continuous
 62
     5
100
AcDbLine
 10
-64.07
 20
216.184
 30
0.005
 11
-64.282
 21
207.569
 31
-1.993999999999999
  0
LINE
  5
1E1
330
1E
100
AcDbEntity
  8
default
  6
Continuous
 62
     5
100
AcDbLine
 10
64.282
 20
207.569
 30
-1.993999999999999
 11
64.49200000000001
 21
198.91
 31
-3.97
  0
LINE
  5
1E2
330
1E
100
AcDbEntity
  8
default
  6
Continuous
 62
     5
100
AcDbLine
 10
-64.282
 20
207.569
 30
-1.993999999999999
 11
-64.49200000000001
 21
198.91
 31
-3.97
  0
LINE
  5
1E3
330
1E
100
AcDbEntity
  8
default
  6
Continuous
 62
     5
100
AcDbLine
 10
64.49200000000001
 20
198.91
 30
-3.97
 11
64.69800000000001
 21
190.225
 31
-5.912999999999999
  0
LINE
  5
1E4
330
1E
100
AcDbEntity
  8
default
  6
Continuous
 62
     5
100
AcDbLine
 10
-64.49200000000001
 20
198.91
 30
-3.97
 11
-64.69800000000001
 21
190.225
 31
-5.912999999999999
  0
LINE
  5
1E5
330
1E
100
AcDbEntity
  8
default
  6
Continuous
 62
     5
100
AcDbLine
 10
64.69800000000001
 20
190.225
 30
-5.912999999999999
 11
64.90100000000001
 21
181.534
 31
-7.825
  0
LINE
  5
1E6
330
1E
100
AcDbEntity
  8
default
  6
Continuous
 62
     5
100
AcDbLine
 10
-64.69800000000001
 20
190.225
 30
-5.912999999999999
 11
-64.90100000000001
 21
181.534
 31
-7.825
  0
LINE
  5
1E7
330
1E
100
AcDbEntity
  8
default
  6
Continuous
 62
     5
100
AcDbLine
 10
64.90100000000001
 20
181.534
 30
-7.825
 11
65.101
 21
172.8529999999999
 31
-9.702999999999999
  0
LINE
  5
1E8
330
1E
100
AcDbEntity
  8
default
  6
Continuous
 62
     5
100
AcDbLine
 10
-64.90100000000001
 20
181.534
 30
-7.825
 11
-65.101
 21
172.8529999999999
 31
-9.702999999999999
  0
LINE
  5
1E9
330
1E
100
AcDbEntity
  8
default
  6
Continuous
 62
     5
100
AcDbLine
 10
65.101
 20
172.8529999999999
 30
-9.702999999999999
 11
65.297
 21
164.189
 31
-11.552
  0
LINE
  5
1EA
330
1E
100
AcDbEntity
  8
default
  6
Continuous
 62
     5
100
AcDbLine
 10
-65.101
 20
172.8529999999999
 30
-9.702999999999999
 11
-65.297
 21
164.189
 31
-11.552
  0
LINE
  5
1EB
330
1E
100
AcDbEntity
  8
default
  6
Continuous
 62
     5
100
AcDbLine
 10
65.297
 20
164.189
 30
-11.552
 11
65.48899999999999
 21
155.548
 31
-13.362
  0
LINE
  5
1EC
330
1E
100
AcDbEntity
  8
default
  6
Continuous
 62
     5
100
AcDbLine
 10
-65.297
 20
164.189
 30
-11.552
 11
-65.48899999999999
 21
155.548
 31
-13.362
  0
LINE
  5
1ED
330
1E
100
AcDbEntity
  8
default
  6
Continuous
 62
     5
100
AcDbLine
 10
65.48899999999999
 20
155.548
 30
-13.362
 11
65.67699999999999
 21
146.94
 31
-15.135
  0
LINE
  5
1EE
330
1E
100
AcDbEntity
  8
default
  6
Continuous
 62
     5
100
AcDbLine
 10
-65.48899999999999
 20
155.548
 30
-13.362
 11
-65.67699999999999
 21
146.94
 31
-15.135
  0
LINE
  5
1EF
330
1E
100
AcDbEntity
  8
default
  6
Continuous
 62
     5
100
AcDbLine
 10
65.67699999999999
 20
146.94
 30
-15.135
 11
65.861
 21
138.368
 31
-16.863
  0
LINE
  5
1F0
330
1E
100
AcDbEntity
  8
default
  6
Continuous
 62
     5
100
AcDbLine
 10
-65.67699999999999
 20
146.94
 30
-15.135
 11
-65.861
 21
138.368
 31
-16.863
  0
LINE
  5
1F1
330
1E
100
AcDbEntity
  8
default
  6
Continuous
 62
     5
100
AcDbLine
 10
65.861
 20
138.368
 30
-16.863
 11
66.039
 21
129.845
 31
-18.541
  0
LINE
  5
1F2
330
1E
100
AcDbEntity
  8
default
  6
Continuous
 62
     5
100
AcDbLine
 10
-65.861
 20
138.368
 30
-16.863
 11
-66.039
 21
129.845
 31
-18.541
  0
LINE
  5
1F3
330
1E
100
AcDbEntity
  8
default
  6
Continuous
 62
     5
100
AcDbLine
 10
66.039
 20
129.845
 30
-18.541
 11
66.211
 21
121.3959999999999
 31
-20.16199999999999
  0
LINE
  5
1F4
330
1E
100
AcDbEntity
  8
default
  6
Continuous
 62
     5
100
AcDbLine
 10
-66.039
 20
129.845
 30
-18.541
 11
-66.211
 21
121.3959999999999
 31
-20.16199999999999
  0
LINE
  5
1F5
330
1E
100
AcDbEntity
  8
default
  6
Continuous
 62
     5
100
AcDbLine
 10
66.211
 20
121.3959999999999
 30
-20.16199999999999
 11
66.376
 21
113.0339999999999
 31
-21.718
  0
LINE
  5
1F6
330
1E
100
AcDbEntity
  8
default
  6
Continuous
 62
     5
100
AcDbLine
 10
-66.211
 20
121.3959999999999
 30
-20.16199999999999
 11
-66.376
 21
113.0339999999999
 31
-21.718
  0
LINE
  5
1F7
330
1E
100
AcDbEntity
  8
default
  6
Continuous
 62
     5
100
AcDbLine
 10
66.376
 20
113.0339999999999
 30
-21.718
 11
66.53399999999999
 21
104.8
 31
-23.204
  0
LINE
  5
1F8
330
1E
100
AcDbEntity
  8
default
  6
Continuous
 62
     5
100
AcDbLine
 10
-66.376
 20
113.0339999999999
 30
-21.718
 11
-66.53399999999999
 21
104.8
 31
-23.204
  0
LINE
  5
1F9
330
1E
100
AcDbEntity
  8
default
  6
Continuous
 62
     5
100
AcDbLine
 10
66.53399999999999
 20
104.8
 30
-23.204
 11
66.682
 21
96.751
 31
-24.599
  0
LINE
  5
1FA
330
1E
100
AcDbEntity
  8
default
  6
Continuous
 62
     5
100
AcDbLine
 10
-66.53399999999999
 20
104.8
 30
-23.204
 11
-66.682
 21
96.751
 31
-24.599
  0
LINE
  5
1FB
330
1E
100
AcDbEntity
  8
default
  6
Continuous
 62
     5
100
AcDbLine
 10
66.682
 20
96.751
 30
-24.599
 11
66.81799999999999
 21
88.95100000000001
 31
-25.879
  0
LINE
  5
1FC
330
1E
100
AcDbEntity
  8
default
  6
Continuous
 62
     5
100
AcDbLine
 10
-66.682
 20
96.751
 30
-24.599
 11
-66.81799999999999
 21
88.95100000000001
 31
-25.879
  0
LINE
  5
1FD
330
1E
100
AcDbEntity
  8
default
  6
Continuous
 62
     5
100
AcDbLine
 10
66.81799999999999
 20
88.95100000000001
 30
-25.879
 11
66.93899999999999
 21
81.48000000000001
 31
-27.021
  0
LINE
  5
1FE
330
1E
100
AcDbEntity
  8
default
  6
Continuous
 62
     5
100
AcDbLine
 10
-66.81799999999999
 20
88.95100000000001
 30
-25.879
 11
-66.93899999999999
 21
81.48000000000001
 31
-27.021
  0
LINE
  5
1FF
330
1E
100
AcDbEntity
  8
default
  6
Continuous
 62
     5
100
AcDbLine
 10
66.93899999999999
 20
81.48000000000001
 30
-27.021
 11
67.04399999999999
 21
74.39199999999999
 31
-28.009
  0
LINE
  5
200
330
1E
100
AcDbEntity
  8
default
  6
Continuous
 62
     5
100
AcDbLine
 10
-66.93899999999999
 20
81.48000000000001
 30
-27.021
 11
-67.04399999999999
 21
74.39199999999999
 31
-28.009
  0
LINE
  5
201
330
1E
100
AcDbEntity
  8
default
  6
Continuous
 62
     5
100
AcDbLine
 10
67.04399999999999
 20
74.39199999999999
 30
-28.009
 11
67.13
 21
67.717
 31
-28.817
  0
LINE
  5
202
330
1E
100
AcDbEntity
  8
default
  6
Continuous
 62
     5
100
AcDbLine
 10
-67.04399999999999
 20
74.39199999999999
 30
-28.009
 11
-67.13
 21
67.717
 31
-28.817
  0
LINE
  5
203
330
1E
100
AcDbEntity
  8
default
  6
Continuous
 62
     5
100
AcDbLine
 10
67.13
 20
67.717
 30
-28.817
 11
67.195
 21
61.458
 31
-29.427
  0
LINE
  5
204
330
1E
100
AcDbEntity
  8
default
  6
Continuous
 62
     5
100
AcDbLine
 10
-67.13
 20
67.717
 30
-28.817
 11
-67.195
 21
61.458
 31
-29.427
  0
LINE
  5
205
330
1E
100
AcDbEntity
  8
default
  6
Continuous
 62
     5
100
AcDbLine
 10
67.195
 20
61.458
 30
-29.427
 11
67.237
 21
55.618
 31
-29.822
  0
LINE
  5
206
330
1E
100
AcDbEntity
  8
default
  6
Continuous
 62
     5
100
AcDbLine
 10
-67.195
 20
61.458
 30
-29.427
 11
-67.237
 21
55.618
 31
-29.822
  0
LINE
  5
207
330
1E
100
AcDbEntity
  8
default
  6
Continuous
 62
     5
100
AcDbLine
 10
67.237
 20
55.618
 30
-29.822
 11
67.256
 21
50.19300000000001
 31
-30.003
  0
LINE
  5
208
330
1E
100
AcDbEntity
  8
default
  6
Continuous
 62
     5
100
AcDbLine
 10
-67.237
 20
55.618
 30
-29.822
 11
-67.256
 21
50.19300000000001
 31
-30.003
  0
LINE
  5
209
330
1E
100
AcDbEntity
  8
default
  6
Continuous
 62
     5
100
AcDbLine
 10
67.256
 20
50.19300000000001
 30
-30.003
 11
67.25100000000001
 21
45.17
 31
-29.963
  0
LINE
  5
20A
330
1E
100
AcDbEntity
  8
default
  6
Continuous
 62
     5
100
AcDbLine
 10
-67.256
 20
50.19300000000001
 30
-30.003
 11
-67.25100000000001
 21
45.17
 31
-29.963
  0
LINE
  5
20B
330
1E
100
AcDbEntity
  8
default
  6
Continuous
 62
     5
100
AcDbLine
 10
67.25100000000001
 20
45.17
 30
-29.963
 11
67.225
 21
40.539
 31
-29.71099999999999
  0
LINE
  5
20C
330
1E
100
AcDbEntity
  8
default
  6
Continuous
 62
     5
100
AcDbLine
 10
-67.25100000000001
 20
45.17
 30
-29.963
 11
-67.225
 21
40.539
 31
-29.71099999999999
  0
LINE
  5
20D
330
1E
100
AcDbEntity
  8
default
  6
Continuous
 62
     5
100
AcDbLine
 10
67.225
 20
40.539
 30
-29.71099999999999
 11
67.176
 21
36.27499999999999
 31
-29.25499999999999
  0
LINE
  5
20E
330
1E
100
AcDbEntity
  8
default
  6
Continuous
 62
     5
100
AcDbLine
 10
-67.225
 20
40.539
 30
-29.71099999999999
 11
-67.176
 21
36.27499999999999
 31
-29.25499999999999
  0
LINE
  5
20F
330
1E
100
AcDbEntity
  8
default
  6
Continuous
 62
     5
100
AcDbLine
 10
67.176
 20
36.27499999999999
 30
-29.25499999999999
 11
67.107
 21
32.358
 31
-28.599
  0
LINE
  5
210
330
1E
100
AcDbEntity
  8
default
  6
Continuous
 62
     5
100
AcDbLine
 10
-67.176
 20
36.27499999999999
 30
-29.25499999999999
 11
-67.107
 21
32.358
 31
-28.599
  0
LINE
  5
211
330
1E
100
AcDbEntity
  8
default
  6
Continuous
 62
     5
100
AcDbLine
 10
67.107
 20
32.358
 30
-28.599
 11
67.01699999999999
 21
28.76
 31
-27.756
  0
LINE
  5
212
330
1E
100
AcDbEntity
  8
default
  6
Continuous
 62
     5
100
AcDbLine
 10
-67.107
 20
32.358
 30
-28.599
 11
-67.01699999999999
 21
28.76
 31
-27.756
  0
LINE
  5
213
330
1E
100
AcDbEntity
  8
default
  6
Continuous
 62
     5
100
AcDbLine
 10
67.01699999999999
 20
28.76
 30
-27.756
 11
66.911
 21
25.472
 31
-26.753
  0
LINE
  5
214
330
1E
100
AcDbEntity
  8
default
  6
Continuous
 62
     5
100
AcDbLine
 10
-67.01699999999999
 20
28.76
 30
-27.756
 11
-66.911
 21
25.472
 31
-26.753
  0
LINE
  5
215
330
1E
100
AcDbEntity
  8
default
  6
Continuous
 62
     5
100
AcDbLine
 10
66.911
 20
25.472
 30
-26.753
 11
66.792
 21
22.48499999999999
 31
-25.632
  0
LINE
  5
216
330
1E
100
AcDbEntity
  8
default
  6
Continuous
 62
     5
100
AcDbLine
 10
-66.911
 20
25.472
 30
-26.753
 11
-66.792
 21
22.48499999999999
 31
-25.632
  0
LINE
  5
217
330
1E
100
AcDbEntity
  8
default
  6
Continuous
 62
     5
100
AcDbLine
 10
66.792
 20
22.48499999999999
 30
-25.632
 11
66.664
 21
19.782
 31
-24.426
  0
LINE
  5
218
330
1E
100
AcDbEntity
  8
default
  6
Continuous
 62
     5
100
AcDbLine
 10
-66.792
 20
22.48499999999999
 30
-25.632
 11
-66.664
 21
19.782
 31
-24.426
  0
LINE
  5
219
330
1E
100
AcDbEntity
  8
default
  6
Continuous
 62
     5
100
AcDbLine
 10
66.664
 20
19.782
 30
-24.426
 11
66.53100000000001
 21
17.355
 31
-23.174
  0
LINE
  5
21A
330
1E
100
AcDbEntity
  8
default
  6
Continuous
 62
     5
100
AcDbLine
 10
-66.664
 20
19.782
 30
-24.426
 11
-66.53100000000001
 21
17.355
 31
-23.174
  0
LINE
  5
21B
330
1E
100
AcDbEntity
  8
default
  6
Continuous
 62
     5
100
AcDbLine
 10
66.53100000000001
 20
17.355
 30
-23.174
 11
66.39399999999999
 21
15.174
 31
-21.88899999999999
  0
LINE
  5
21C
330
1E
100
AcDbEntity
  8
default
  6
Continuous
 62
     5
100
AcDbLine
 10
-66.53100000000001
 20
17.355
 30
-23.174
 11
-66.39399999999999
 21
15.174
 31
-21.88899999999999
  0
LINE
  5
21D
330
1E
100
AcDbEntity
  8
default
  6
Continuous
 62
     5
100
AcDbLine
 10
66.39399999999999
 20
15.174
 30
-21.88899999999999
 11
66.25700000000001
 21
13.225
 31
-20.594
  0
LINE
  5
21E
330
1E
100
AcDbEntity
  8
default
  6
Continuous
 62
     5
100
AcDbLine
 10
-66.39399999999999
 20
15.174
 30
-21.88899999999999
 11
-66.25700000000001
 21
13.225
 31
-20.594
  0
LINE
  5
21F
330
1E
100
AcDbEntity
  8
default
  6
Continuous
 62
     5
100
AcDbLine
 10
66.25700000000001
 20
13.225
 30
-20.594
 11
66.119
 21
11.487
 31
-19.30099999999999
  0
LINE
  5
220
330
1E
100
AcDbEntity
  8
default
  6
Continuous
 62
     5
100
AcDbLine
 10
-66.25700000000001
 20
13.225
 30
-20.594
 11
-66.119
 21
11.487
 31
-19.30099999999999
  0
LINE
  5
221
330
1E
100
AcDbEntity
  8
default
  6
Continuous
 62
     5
100
AcDbLine
 10
66.119
 20
11.487
 30
-19.30099999999999
 11
65.98399999999999
 21
9.939999999999999
 31
-18.02299999999999
  0
LINE
  5
222
330
1E
100
AcDbEntity
  8
default
  6
Continuous
 62
     5
100
AcDbLine
 10
-66.119
 20
11.487
 30
-19.30099999999999
 11
-65.98399999999999
 21
9.939999999999999
 31
-18.02299999999999
  0
LINE
  5
223
330
1E
100
AcDbEntity
  8
default
  6
Continuous
 62
     5
100
AcDbLine
 10
65.98399999999999
 20
9.939999999999999
 30
-18.02299999999999
 11
65.84999999999999
 21
8.567999999999999
 31
-16.76
  0
LINE
  5
224
330
1E
100
AcDbEntity
  8
default
  6
Continuous
 62
     5
100
AcDbLine
 10
-65.98399999999999
 20
9.939999999999999
 30
-18.02299999999999
 11
-65.84999999999999
 21
8.567999999999999
 31
-16.76
  0
LINE
  5
225
330
1E
100
AcDbEntity
  8
default
  6
Continuous
 62
     5
100
AcDbLine
 10
65.84999999999999
 20
8.567999999999999
 30
-16.76
 11
65.718
 21
7.355
 31
-15.52
  0
LINE
  5
226
330
1E
100
AcDbEntity
  8
default
  6
Continuous
 62
     5
100
AcDbLine
 10
-65.84999999999999
 20
8.567999999999999
 30
-16.76
 11
-65.718
 21
7.355
 31
-15.52
  0
LINE
  5
227
330
1E
100
AcDbEntity
  8
default
  6
Continuous
 62
     5
100
AcDbLine
 10
65.718
 20
7.355
 30
-15.52
 11
65.58800000000001
 21
6.282999999999999
 31
-14.29499999999999
  0
LINE
  5
228
330
1E
100
AcDbEntity
  8
default
  6
Continuous
 62
     5
100
AcDbLine
 10
-65.718
 20
7.355
 30
-15.52
 11
-65.58800000000001
 21
6.282999999999999
 31
-14.29499999999999
  0
LINE
  5
229
330
1E
100
AcDbEntity
  8
default
  6
Continuous
 62
     5
100
AcDbLine
 10
65.58800000000001
 20
6.282999999999999
 30
-14.29499999999999
 11
65.45999999999999
 21
5.342
 31
-13.09
  0
LINE
  5
22A
330
1E
100
AcDbEntity
  8
default
  6
Continuous
 62
     5
100
AcDbLine
 10
-65.58800000000001
 20
6.282999999999999
 30
-14.29499999999999
 11
-65.45999999999999
 21
5.342
 31
-13.09
  0
LINE
  5
22B
330
1E
100
AcDbEntity
  8
default
  6
Continuous
 62
     5
100
AcDbLine
 10
65.45999999999999
 20
5.342
 30
-13.09
 11
65.335
 21
4.528999999999999
 31
-11.909
  0
LINE
  5
22C
330
1E
100
AcDbEntity
  8
default
  6
Continuous
 62
     5
100
AcDbLine
 10
-65.45999999999999
 20
5.342
 30
-13.09
 11
-65.335
 21
4.528999999999999
 31
-11.909
  0
LINE
  5
22D
330
1E
100
AcDbEntity
  8
default
  6
Continuous
 62
     5
100
AcDbLine
 10
65.335
 20
4.528999999999999
 30
-11.909
 11
65.212
 21
3.833
 31
-10.757
  0
LINE
  5
22E
330
1E
100
AcDbEntity
  8
default
  6
Continuous
 62
     5
100
AcDbLine
 10
-65.335
 20
4.528999999999999
 30
-11.909
 11
-65.212
 21
3.833
 31
-10.757
  0
LINE
  5
22F
330
1E
100
AcDbEntity
  8
default
  6
Continuous
 62
     5
100
AcDbLine
 10
65.212
 20
3.833
 30
-10.757
 11
65.09399999999999
 21
3.253999999999999
 31
-9.642000000000001
  0
LINE
  5
230
330
1E
100
AcDbEntity
  8
default
  6
Continuous
 62
     5
100
AcDbLine
 10
-65.212
 20
3.833
 30
-10.757
 11
-65.09399999999999
 21
3.253999999999999
 31
-9.642000000000001
  0
LINE
  5
231
330
1E
100
AcDbEntity
  8
default
  6
Continuous
 62
     5
100
AcDbLine
 10
65.09399999999999
 20
3.253999999999999
 30
-9.642000000000001
 11
64.97800000000001
 21
2.776
 31
-8.55
  0
LINE
  5
232
330
1E
100
AcDbEntity
  8
default
  6
Continuous
 62
     5
100
AcDbLine
 10
-65.09399999999999
 20
3.253999999999999
 30
-9.642000000000001
 11
-64.97800000000001
 21
2.776
 31
-8.55
  0
LINE
  5
233
330
1E
100
AcDbEntity
  8
default
  6
Continuous
 62
     5
100
AcDbLine
 10
64.97800000000001
 20
2.776
 30
-8.55
 11
64.867
 21
2.381999999999999
 31
-7.502999999999999
  0
LINE
  5
234
330
1E
100
AcDbEntity
  8
default
  6
Continuous
 62
     5
100
AcDbLine
 10
-64.97800000000001
 20
2.776
 30
-8.55
 11
-64.867
 21
2.381999999999999
 31
-7.502999999999999
  0
LINE
  5
235
330
1E
100
AcDbEntity
  8
default
  6
Continuous
 62
     5
100
AcDbLine
 10
64.867
 20
2.381999999999999
 30
-7.502999999999999
 11
64.753
 21
2.056
 31
-6.427999999999999
  0
LINE
  5
236
330
1E
100
AcDbEntity
  8
default
  6
Continuous
 62
     5
100
AcDbLine
 10
-64.867
 20
2.381999999999999
 30
-7.502999999999999
 11
-64.753
 21
2.056
 31
-6.427999999999999
  0
LINE
  5
237
330
1E
100
AcDbEntity
  8
default
  6
Continuous
 62
     5
100
AcDbLine
 10
64.753
 20
2.056
 30
-6.427999999999999
 11
64.65600000000001
 21
1.807
 31
-5.514999999999999
  0
LINE
  5
238
330
1E
100
AcDbEntity
  8
default
  6
Continuous
 62
     5
100
AcDbLine
 10
-64.753
 20
2.056
 30
-6.427999999999999
 11
-64.65600000000001
 21
1.807
 31
-5.514999999999999
  0
LINE
  5
239
330
1E
100
AcDbEntity
  8
default
  6
Continuous
 62
     5
100
AcDbLine
 10
64.65600000000001
 20
1.807
 30
-5.514999999999999
 11
64.51699999999999
 21
1.607
 31
-4.201
  0
LINE
  5
23A
330
1E
100
AcDbEntity
  8
default
  6
Continuous
 62
     5
100
AcDbLine
 10
-64.65600000000001
 20
1.807
 30
-5.514999999999999
 11
-64.51699999999999
 21
1.607
 31
-4.201
  0
LINE
  5
23B
330
1E
100
AcDbEntity
  8
default
  6
Continuous
 62
     5
100
AcDbLine
 10
64.51699999999999
 20
1.607
 30
-4.201
 11
64.50499999999999
 21
1.604999999999999
 31
-4.096
  0
LINE
  5
23C
330
1E
100
AcDbEntity
  8
default
  6
Continuous
 62
     5
100
AcDbLine
 10
-64.51699999999999
 20
1.607
 30
-4.201
 11
-64.50499999999999
 21
1.604999999999999
 31
-4.096
  0
LINE
  5
23D
330
1E
100
AcDbEntity
  8
default
  6
Continuous
 62
     5
100
AcDbLine
 10
64.50499999999999
 20
1.604999999999999
 30
-4.096
 11
64.34699999999999
 21
1.62
 31
-2.606999999999999
  0
LINE
  5
23E
330
1E
100
AcDbEntity
  8
default
  6
Continuous
 62
     5
100
AcDbLine
 10
-64.50499999999999
 20
1.604999999999999
 30
-4.096
 11
-64.34699999999999
 21
1.62
 31
-2.606999999999999
  0
LINE
  5
23F
330
1E
100
AcDbEntity
  8
default
  6
Continuous
 62
     5
100
AcDbLine
 10
64.34699999999999
 20
1.62
 30
-2.606999999999999
 11
64.27500000000001
 21
1.841999999999999
 31
-1.926999999999999
  0
LINE
  5
240
330
1E
100
AcDbEntity
  8
default
  6
Continuous
 62
     5
100
AcDbLine
 10
-64.34699999999999
 20
1.62
 30
-2.606999999999999
 11
-64.27500000000001
 21
1.841999999999999
 31
-1.926999999999999
  0
LINE
  5
241
330
1E
100
AcDbEntity
  8
default
  6
Continuous
 62
     5
100
AcDbLine
 10
64.27500000000001
 20
1.841999999999999
 30
-1.926999999999999
 11
64.185
 21
2.195999999999999
 31
-1.08
  0
LINE
  5
242
330
1E
100
AcDbEntity
  8
default
  6
Continuous
 62
     5
100
AcDbLine
 10
-64.27500000000001
 20
1.841999999999999
 30
-1.926999999999999
 11
-64.185
 21
2.195999999999999
 31
-1.08
  0
LINE
  5
243
330
1E
100
AcDbEntity
  8
default
  6
Continuous
 62
     5
100
AcDbLine
 10
64.185
 20
2.195999999999999
 30
-1.08
 11
64.102
 21
2.703999999999999
 31
-0.296
  0
LINE
  5
244
330
1E
100
AcDbEntity
  8
default
  6
Continuous
 62
     5
100
AcDbLine
 10
-64.185
 20
2.195999999999999
 30
-1.08
 11
-64.102
 21
2.703999999999999
 31
-0.296
  0
LINE
  5
245
330
1E
100
AcDbEntity
  8
default
  6
Continuous
 62
     5
100
AcDbLine
 10
64.102
 20
2.703999999999999
 30
-0.296
 11
64.023
 21
3.365
 31
0.451
  0
LINE
  5
246
330
1E
100
AcDbEntity
  8
default
  6
Continuous
 62
     5
100
AcDbLine
 10
-64.102
 20
2.703999999999999
 30
-0.296
 11
-64.023
 21
3.365
 31
0.451
  0
LINE
  5
247
330
1E
100
AcDbEntity
  8
default
  6
Continuous
 62
     5
100
AcDbLine
 10
64.023
 20
3.365
 30
0.451
 11
63.94899999999999
 21
4.177999999999999
 31
1.149
  0
LINE
  5
248
330
1E
100
AcDbEntity
  8
default
  6
Continuous
 62
     5
100
AcDbLine
 10
-64.023
 20
3.365
 30
0.451
 11
-63.94899999999999
 21
4.177999999999999
 31
1.149
  0
LINE
  5
249
330
1E
100
AcDbEntity
  8
default
  6
Continuous
 62
     5
100
AcDbLine
 10
63.94899999999999
 20
4.177999999999999
 30
1.149
 11
63.87699999999999
 21
5.139999999999999
 31
1.824
  0
LINE
  5
24A
330
1E
100
AcDbEntity
  8
default
  6
Continuous
 62
     5
100
AcDbLine
 10
-63.94899999999999
 20
4.177999999999999
 30
1.149
 11
-63.87699999999999
 21
5.139999999999999
 31
1.824
  0
LINE
  5
24B
330
1E
100
AcDbEntity
  8
default
  6
Continuous
 62
     5
100
AcDbLine
 10
63.87699999999999
 20
5.139999999999999
 30
1.824
 11
63.837
 21
5.747
 31
2.197999999999999
  0
LINE
  5
24C
330
1E
100
AcDbEntity
  8
default
  6
Continuous
 62
     5
100
AcDbLine
 10
-63.87699999999999
 20
5.139999999999999
 30
1.824
 11
-63.837
 21
5.747
 31
2.197999999999999
  0
LINE
  5
24D
330
1E
100
AcDbEntity
  8
default
  6
Continuous
 62
     5
100
AcDbLine
 10
21.333
 20
291.4019999999999
 30
0.377
 11
62.11899999999999
 21
290.194
 31
18.384
  0
LINE
  5
24E
330
1E
100
AcDbEntity
  8
default
  6
Continuous
 62
     5
100
AcDbLine
 10
-21.333
 20
291.4019999999999
 30
0.377
 11
-62.11899999999999
 21
290.194
 31
18.384
  0
LINE
  5
24F
330
1E
100
AcDbEntity
  8
default
  6
Continuous
 62
     5
100
AcDbLine
 10
21.359
 20
288.0229999999999
 30
-0.377
 11
62.21
 21
286.894
 31
17.52799999999999
  0
LINE
  5
250
330
1E
100
AcDbEntity
  8
default
  6
Continuous
 62
     5
100
AcDbLine
 10
-21.359
 20
288.0229999999999
 30
-0.377
 11
-62.21
 21
286.894
 31
17.52799999999999
  0
LINE
  5
251
330
1E
100
AcDbEntity
  8
default
  6
Continuous
 62
     5
100
AcDbLine
 10
21.40199999999999
 20
282.2649999999999
 30
-1.648
 11
62.36399999999999
 21
281.2679999999999
 31
16.078
  0
LINE
  5
252
330
1E
100
AcDbEntity
  8
default
  6
Continuous
 62
     5
100
AcDbLine
 10
-21.40199999999999
 20
282.2649999999999
 30
-1.648
 11
-62.36399999999999
 21
281.2679999999999
 31
16.078
  0
LINE
  5
253
330
1E
100
AcDbEntity
  8
default
  6
Continuous
 62
     5
100
AcDbLine
 10
21.453
 20
275.517
 30
-3.128999999999999
 11
62.543
 21
274.674
 31
14.387
  0
LINE
  5
254
330
1E
100
AcDbEntity
  8
default
  6
Continuous
 62
     5
100
AcDbLine
 10
-21.453
 20
275.517
 30
-3.128999999999999
 11
-62.543
 21
274.674
 31
14.387
  0
LINE
  5
255
330
1E
100
AcDbEntity
  8
default
  6
Continuous
 62
     5
100
AcDbLine
 10
21.51
 20
267.735
 30
-4.814
 11
62.748
 21
267.0679999999999
 31
12.455
  0
LINE
  5
256
330
1E
100
AcDbEntity
  8
default
  6
Continuous
 62
     5
100
AcDbLine
 10
-21.51
 20
267.735
 30
-4.814
 11
-62.748
 21
267.0679999999999
 31
12.455
  0
LINE
  5
257
330
1E
100
AcDbEntity
  8
default
  6
Continuous
 62
     5
100
AcDbLine
 10
21.572
 20
259.2099999999999
 30
-6.637999999999999
 11
62.971
 21
258.735
 31
10.355
  0
LINE
  5
258
330
1E
100
AcDbEntity
  8
default
  6
Continuous
 62
     5
100
AcDbLine
 10
-21.572
 20
259.2099999999999
 30
-6.637999999999999
 11
-62.971
 21
258.735
 31
10.355
  0
LINE
  5
259
330
1E
100
AcDbEntity
  8
default
  6
Continuous
 62
     5
100
AcDbLine
 10
21.635
 20
250.4399999999999
 30
-8.487999999999999
 11
63.198
 21
250.1609999999999
 31
8.214999999999999
  0
LINE
  5
25A
330
1E
100
AcDbEntity
  8
default
  6
Continuous
 62
     5
100
AcDbLine
 10
-21.635
 20
250.4399999999999
 30
-8.487999999999999
 11
-63.198
 21
250.1609999999999
 31
8.214999999999999
  0
LINE
  5
25B
330
1E
100
AcDbEntity
  8
default
  6
Continuous
 62
     5
100
AcDbLine
 10
21.697
 20
241.735
 30
-10.29299999999999
 11
63.42100000000001
 21
241.6479999999999
 31
6.117
  0
LINE
  5
25C
330
1E
100
AcDbEntity
  8
default
  6
Continuous
 62
     5
100
AcDbLine
 10
-21.697
 20
241.735
 30
-10.29299999999999
 11
-63.42100000000001
 21
241.6479999999999
 31
6.117
  0
LINE
  5
25D
330
1E
100
AcDbEntity
  8
default
  6
Continuous
 62
     5
100
AcDbLine
 10
21.75699999999999
 20
233.0929999999999
 30
-12.052
 11
63.64
 21
233.1949999999999
 31
4.059
  0
LINE
  5
25E
330
1E
100
AcDbEntity
  8
default
  6
Continuous
 62
     5
100
AcDbLine
 10
-21.75699999999999
 20
233.0929999999999
 30
-12.052
 11
-63.64
 21
233.1949999999999
 31
4.059
  0
LINE
  5
25F
330
1E
100
AcDbEntity
  8
default
  6
Continuous
 62
     5
100
AcDbLine
 10
21.815
 20
224.432
 30
-13.782
 11
63.856
 21
224.7209999999999
 31
2.023
  0
LINE
  5
260
330
1E
100
AcDbEntity
  8
default
  6
Continuous
 62
     5
100
AcDbLine
 10
-21.815
 20
224.432
 30
-13.782
 11
-63.856
 21
224.7209999999999
 31
2.023
  0
LINE
  5
261
330
1E
100
AcDbEntity
  8
default
  6
Continuous
 62
     5
100
AcDbLine
 10
21.873
 20
215.709
 30
-15.484
 11
64.07
 21
216.184
 31
0.005
  0
LINE
  5
262
330
1E
100
AcDbEntity
  8
default
  6
Continuous
 62
     5
100
AcDbLine
 10
-21.873
 20
215.709
 30
-15.484
 11
-64.07
 21
216.184
 31
0.005
  0
LINE
  5
263
330
1E
100
AcDbEntity
  8
default
  6
Continuous
 62
     5
100
AcDbLine
 10
21.93
 20
206.91
 30
-17.153
 11
64.282
 21
207.569
 31
-1.993999999999999
  0
LINE
  5
264
330
1E
100
AcDbEntity
  8
default
  6
Continuous
 62
     5
100
AcDbLine
 10
-21.93
 20
206.91
 30
-17.153
 11
-64.282
 21
207.569
 31
-1.993999999999999
  0
LINE
  5
265
330
1E
100
AcDbEntity
  8
default
  6
Continuous
 62
     5
100
AcDbLine
 10
21.986
 20
198.0679999999999
 30
-18.789
 11
64.49200000000001
 21
198.91
 31
-3.97
  0
LINE
  5
266
330
1E
100
AcDbEntity
  8
default
  6
Continuous
 62
     5
100
AcDbLine
 10
-21.986
 20
198.0679999999999
 30
-18.789
 11
-64.49200000000001
 21
198.91
 31
-3.97
  0
LINE
  5
267
330
1E
100
AcDbEntity
  8
default
  6
Continuous
 62
     5
100
AcDbLine
 10
22.04
 20
189.202
 30
-20.37999999999999
 11
64.69800000000001
 21
190.225
 31
-5.912999999999999
  0
LINE
  5
268
330
1E
100
AcDbEntity
  8
default
  6
Continuous
 62
     5
100
AcDbLine
 10
-22.04
 20
189.202
 30
-20.37999999999999
 11
-64.69800000000001
 21
190.225
 31
-5.912999999999999
  0
LINE
  5
269
330
1E
100
AcDbEntity
  8
default
  6
Continuous
 62
     5
100
AcDbLine
 10
22.093
 20
180.333
 30
-21.933
 11
64.90100000000001
 21
181.534
 31
-7.825
  0
LINE
  5
26A
330
1E
100
AcDbEntity
  8
default
  6
Continuous
 62
     5
100
AcDbLine
 10
-22.093
 20
180.333
 30
-21.933
 11
-64.90100000000001
 21
181.534
 31
-7.825
  0
LINE
  5
26B
330
1E
100
AcDbEntity
  8
default
  6
Continuous
 62
     5
100
AcDbLine
 10
22.144
 20
171.476
 30
-23.443
 11
65.101
 21
172.8529999999999
 31
-9.702999999999999
  0
LINE
  5
26C
330
1E
100
AcDbEntity
  8
default
  6
Continuous
 62
     5
100
AcDbLine
 10
-22.144
 20
171.476
 30
-23.443
 11
-65.101
 21
172.8529999999999
 31
-9.702999999999999
  0
LINE
  5
26D
330
1E
100
AcDbEntity
  8
default
  6
Continuous
 62
     5
100
AcDbLine
 10
22.195
 20
162.6399999999999
 30
-24.918
 11
65.297
 21
164.189
 31
-11.552
  0
LINE
  5
26E
330
1E
100
AcDbEntity
  8
default
  6
Continuous
 62
     5
100
AcDbLine
 10
-22.195
 20
162.6399999999999
 30
-24.918
 11
-65.297
 21
164.189
 31
-11.552
  0
LINE
  5
26F
330
1E
100
AcDbEntity
  8
default
  6
Continuous
 62
     5
100
AcDbLine
 10
22.243
 20
153.829
 30
-26.348
 11
65.48899999999999
 21
155.548
 31
-13.362
  0
LINE
  5
270
330
1E
100
AcDbEntity
  8
default
  6
Continuous
 62
     5
100
AcDbLine
 10
-22.243
 20
153.829
 30
-26.348
 11
-65.48899999999999
 21
155.548
 31
-13.362
  0
LINE
  5
271
330
1E
100
AcDbEntity
  8
default
  6
Continuous
 62
     5
100
AcDbLine
 10
22.29
 20
145.0539999999999
 30
-27.732
 11
65.67699999999999
 21
146.94
 31
-15.135
  0
LINE
  5
272
330
1E
100
AcDbEntity
  8
default
  6
Continuous
 62
     5
100
AcDbLine
 10
-22.29
 20
145.0539999999999
 30
-27.732
 11
-65.67699999999999
 21
146.94
 31
-15.135
  0
LINE
  5
273
330
1E
100
AcDbEntity
  8
default
  6
Continuous
 62
     5
100
AcDbLine
 10
22.336
 20
136.3189999999999
 30
-29.064
 11
65.861
 21
138.368
 31
-16.863
  0
LINE
  5
274
330
1E
100
AcDbEntity
  8
default
  6
Continuous
 62
     5
100
AcDbLine
 10
-22.336
 20
136.3189999999999
 30
-29.064
 11
-65.861
 21
138.368
 31
-16.863
  0
LINE
  5
275
330
1E
100
AcDbEntity
  8
default
  6
Continuous
 62
     5
100
AcDbLine
 10
22.379
 20
127.637
 30
-30.339
 11
66.039
 21
129.845
 31
-18.541
  0
LINE
  5
276
330
1E
100
AcDbEntity
  8
default
  6
Continuous
 62
     5
100
AcDbLine
 10
-22.379
 20
127.637
 30
-30.339
 11
-66.039
 21
129.845
 31
-18.541
  0
LINE
  5
277
330
1E
100
AcDbEntity
  8
default
  6
Continuous
 62
     5
100
AcDbLine
 10
22.42
 20
119.0339999999999
 30
-31.548
 11
66.211
 21
121.3959999999999
 31
-20.16199999999999
  0
LINE
  5
278
330
1E
100
AcDbEntity
  8
default
  6
Continuous
 62
     5
100
AcDbLine
 10
-22.42
 20
119.0339999999999
 30
-31.548
 11
-66.211
 21
121.3959999999999
 31
-20.16199999999999
  0
LINE
  5
279
330
1E
100
AcDbEntity
  8
default
  6
Continuous
 62
     5
100
AcDbLine
 10
22.459
 20
110.5229999999999
 30
-32.68399999999999
 11
66.376
 21
113.0339999999999
 31
-21.718
  0
LINE
  5
27A
330
1E
100
AcDbEntity
  8
default
  6
Continuous
 62
     5
100
AcDbLine
 10
-22.459
 20
110.5229999999999
 30
-32.68399999999999
 11
-66.376
 21
113.0339999999999
 31
-21.718
  0
LINE
  5
27B
330
1E
100
AcDbEntity
  8
default
  6
Continuous
 62
     5
100
AcDbLine
 10
22.495
 20
102.147
 30
-33.744
 11
66.53399999999999
 21
104.8
 31
-23.204
  0
LINE
  5
27C
330
1E
100
AcDbEntity
  8
default
  6
Continuous
 62
     5
100
AcDbLine
 10
-22.495
 20
102.147
 30
-33.744
 11
-66.53399999999999
 21
104.8
 31
-23.204
  0
LINE
  5
27D
330
1E
100
AcDbEntity
  8
default
  6
Continuous
 62
     5
100
AcDbLine
 10
22.528
 20
93.963
 30
-34.708
 11
66.682
 21
96.751
 31
-24.599
  0
LINE
  5
27E
330
1E
100
AcDbEntity
  8
default
  6
Continuous
 62
     5
100
AcDbLine
 10
-22.528
 20
93.963
 30
-34.708
 11
-66.682
 21
96.751
 31
-24.599
  0
LINE
  5
27F
330
1E
100
AcDbEntity
  8
default
  6
Continuous
 62
     5
100
AcDbLine
 10
22.557
 20
86.03799999999999
 30
-35.552
 11
66.81799999999999
 21
88.95100000000001
 31
-25.879
  0
LINE
  5
280
330
1E
100
AcDbEntity
  8
default
  6
Continuous
 62
     5
100
AcDbLine
 10
-22.557
 20
86.03799999999999
 30
-35.552
 11
-66.81799999999999
 21
88.95100000000001
 31
-25.879
  0
LINE
  5
281
330
1E
100
AcDbEntity
  8
default
  6
Continuous
 62
     5
100
AcDbLine
 10
22.581
 20
78.45399999999999
 30
-36.25399999999999
 11
66.93899999999999
 21
81.48000000000001
 31
-27.021
  0
LINE
  5
282
330
1E
100
AcDbEntity
  8
default
  6
Continuous
 62
     5
100
AcDbLine
 10
-22.581
 20
78.45399999999999
 30
-36.25399999999999
 11
-66.93899999999999
 21
81.48000000000001
 31
-27.021
  0
LINE
  5
283
330
1E
100
AcDbEntity
  8
default
  6
Continuous
 62
     5
100
AcDbLine
 10
22.599
 20
71.266
 30
-36.801
 11
67.04399999999999
 21
74.39199999999999
 31
-28.009
  0
LINE
  5
284
330
1E
100
AcDbEntity
  8
default
  6
Continuous
 62
     5
100
AcDbLine
 10
-22.599
 20
71.266
 30
-36.801
 11
-67.04399999999999
 21
74.39199999999999
 31
-28.009
  0
LINE
  5
285
330
1E
100
AcDbEntity
  8
default
  6
Continuous
 62
     5
100
AcDbLine
 10
22.611
 20
64.506
 30
-37.15999999999999
 11
67.13
 21
67.717
 31
-28.817
  0
LINE
  5
286
330
1E
100
AcDbEntity
  8
default
  6
Continuous
 62
     5
100
AcDbLine
 10
-22.611
 20
64.506
 30
-37.15999999999999
 11
-67.13
 21
67.717
 31
-28.817
  0
LINE
  5
287
330
1E
100
AcDbEntity
  8
default
  6
Continuous
 62
     5
100
AcDbLine
 10
22.61699999999999
 20
58.18
 30
-37.31199999999999
 11
67.195
 21
61.458
 31
-29.427
  0
LINE
  5
288
330
1E
100
AcDbEntity
  8
default
  6
Continuous
 62
     5
100
AcDbLine
 10
-22.61699999999999
 20
58.18
 30
-37.31199999999999
 11
-67.195
 21
61.458
 31
-29.427
  0
LINE
  5
289
330
1E
100
AcDbEntity
  8
default
  6
Continuous
 62
     5
100
AcDbLine
 10
22.614
 20
52.291
 30
-37.234
 11
67.237
 21
55.618
 31
-29.822
  0
LINE
  5
28A
330
1E
100
AcDbEntity
  8
default
  6
Continuous
 62
     5
100
AcDbLine
 10
-22.614
 20
52.291
 30
-37.234
 11
-67.237
 21
55.618
 31
-29.822
  0
LINE
  5
28B
330
1E
100
AcDbEntity
  8
default
  6
Continuous
 62
     5
100
AcDbLine
 10
22.603
 20
46.835
 30
-36.927
 11
67.256
 21
50.19300000000001
 31
-30.003
  0
LINE
  5
28C
330
1E
100
AcDbEntity
  8
default
  6
Continuous
 62
     5
100
AcDbLine
 10
-22.603
 20
46.835
 30
-36.927
 11
-67.256
 21
50.19300000000001
 31
-30.003
  0
LINE
  5
28D
330
1E
100
AcDbEntity
  8
default
  6
Continuous
 62
     5
100
AcDbLine
 10
22.585
 20
41.79999999999999
 30
-36.38
 11
67.25100000000001
 21
45.17
 31
-29.963
  0
LINE
  5
28E
330
1E
100
AcDbEntity
  8
default
  6
Continuous
 62
     5
100
AcDbLine
 10
-22.585
 20
41.79999999999999
 30
-36.38
 11
-67.25100000000001
 21
45.17
 31
-29.963
  0
LINE
  5
28F
330
1E
100
AcDbEntity
  8
default
  6
Continuous
 62
     5
100
AcDbLine
 10
22.559
 20
37.17499999999999
 30
-35.607
 11
67.225
 21
40.539
 31
-29.71099999999999
  0
LINE
  5
290
330
1E
100
AcDbEntity
  8
default
  6
Continuous
 62
     5
100
AcDbLine
 10
-22.559
 20
37.17499999999999
 30
-35.607
 11
-67.225
 21
40.539
 31
-29.71099999999999
  0
LINE
  5
291
330
1E
100
AcDbEntity
  8
default
  6
Continuous
 62
     5
100
AcDbLine
 10
22.52499999999999
 20
32.934
 30
-34.611
 11
67.176
 21
36.27499999999999
 31
-29.25499999999999
  0
LINE
  5
292
330
1E
100
AcDbEntity
  8
default
  6
Continuous
 62
     5
100
AcDbLine
 10
-22.52499999999999
 20
32.934
 30
-34.611
 11
-67.176
 21
36.27499999999999
 31
-29.25499999999999
  0
LINE
  5
293
330
1E
100
AcDbEntity
  8
default
  6
Continuous
 62
     5
100
AcDbLine
 10
22.48299999999999
 20
29.05699999999999
 30
-33.398
 11
67.107
 21
32.358
 31
-28.599
  0
LINE
  5
294
330
1E
100
AcDbEntity
  8
default
  6
Continuous
 62
     5
100
AcDbLine
 10
-22.48299999999999
 20
29.05699999999999
 30
-33.398
 11
-67.107
 21
32.358
 31
-28.599
  0
LINE
  5
295
330
1E
100
AcDbEntity
  8
default
  6
Continuous
 62
     5
100
AcDbLine
 10
22.435
 20
25.516
 30
-31.98199999999999
 11
67.01699999999999
 21
28.76
 31
-27.756
  0
LINE
  5
296
330
1E
100
AcDbEntity
  8
default
  6
Continuous
 62
     5
100
AcDbLine
 10
-22.435
 20
25.516
 30
-31.98199999999999
 11
-67.01699999999999
 21
28.76
 31
-27.756
  0
LINE
  5
297
330
1E
100
AcDbEntity
  8
default
  6
Continuous
 62
     5
100
AcDbLine
 10
22.381
 20
22.29699999999999
 30
-30.394
 11
66.911
 21
25.472
 31
-26.753
  0
LINE
  5
298
330
1E
100
AcDbEntity
  8
default
  6
Continuous
 62
     5
100
AcDbLine
 10
-22.381
 20
22.29699999999999
 30
-30.394
 11
-66.911
 21
25.472
 31
-26.753
  0
LINE
  5
299
330
1E
100
AcDbEntity
  8
default
  6
Continuous
 62
     5
100
AcDbLine
 10
22.32299999999999
 20
19.39099999999999
 30
-28.686
 11
66.792
 21
22.48499999999999
 31
-25.632
  0
LINE
  5
29A
330
1E
100
AcDbEntity
  8
default
  6
Continuous
 62
     5
100
AcDbLine
 10
-22.32299999999999
 20
19.39099999999999
 30
-28.686
 11
-66.792
 21
22.48499999999999
 31
-25.632
  0
LINE
  5
29B
330
1E
100
AcDbEntity
  8
default
  6
Continuous
 62
     5
100
AcDbLine
 10
22.26199999999999
 20
16.775
 30
-26.901
 11
66.664
 21
19.782
 31
-24.426
  0
LINE
  5
29C
330
1E
100
AcDbEntity
  8
default
  6
Continuous
 62
     5
100
AcDbLine
 10
-22.26199999999999
 20
16.775
 30
-26.901
 11
-66.664
 21
19.782
 31
-24.426
  0
LINE
  5
29D
330
1E
100
AcDbEntity
  8
default
  6
Continuous
 62
     5
100
AcDbLine
 10
22.2
 20
14.43999999999999
 30
-25.083
 11
66.53100000000001
 21
17.355
 31
-23.174
  0
LINE
  5
29E
330
1E
100
AcDbEntity
  8
default
  6
Continuous
 62
     5
100
AcDbLine
 10
-22.2
 20
14.43999999999999
 30
-25.083
 11
-66.53100000000001
 21
17.355
 31
-23.174
  0
LINE
  5
29F
330
1E
100
AcDbEntity
  8
default
  6
Continuous
 62
     5
100
AcDbLine
 10
22.138
 20
12.354
 30
-23.249
 11
66.39399999999999
 21
15.174
 31
-21.88899999999999
  0
LINE
  5
2A0
330
1E
100
AcDbEntity
  8
default
  6
Continuous
 62
     5
100
AcDbLine
 10
-22.138
 20
12.354
 30
-23.249
 11
-66.39399999999999
 21
15.174
 31
-21.88899999999999
  0
LINE
  5
2A1
330
1E
100
AcDbEntity
  8
default
  6
Continuous
 62
     5
100
AcDbLine
 10
22.076
 20
10.502
 30
-21.425
 11
66.25700000000001
 21
13.225
 31
-20.594
  0
LINE
  5
2A2
330
1E
100
AcDbEntity
  8
default
  6
Continuous
 62
     5
100
AcDbLine
 10
-22.076
 20
10.502
 30
-21.425
 11
-66.25700000000001
 21
13.225
 31
-20.594
  0
LINE
  5
2A3
330
1E
100
AcDbEntity
  8
default
  6
Continuous
 62
     5
100
AcDbLine
 10
22.014
 20
8.862
 30
-19.624
 11
66.119
 21
11.487
 31
-19.30099999999999
  0
LINE
  5
2A4
330
1E
100
AcDbEntity
  8
default
  6
Continuous
 62
     5
100
AcDbLine
 10
-22.014
 20
8.862
 30
-19.624
 11
-66.119
 21
11.487
 31
-19.30099999999999
  0
LINE
  5
2A5
330
1E
100
AcDbEntity
  8
default
  6
Continuous
 62
     5
100
AcDbLine
 10
21.954
 20
7.412
 30
-17.861
 11
65.98399999999999
 21
9.939999999999999
 31
-18.02299999999999
  0
LINE
  5
2A6
330
1E
100
AcDbEntity
  8
default
  6
Continuous
 62
     5
100
AcDbLine
 10
-21.954
 20
7.412
 30
-17.861
 11
-65.98399999999999
 21
9.939999999999999
 31
-18.02299999999999
  0
LINE
  5
2A7
330
1E
100
AcDbEntity
  8
default
  6
Continuous
 62
     5
100
AcDbLine
 10
21.895
 20
6.136
 30
-16.134
 11
65.84999999999999
 21
8.567999999999999
 31
-16.76
  0
LINE
  5
2A8
330
1E
100
AcDbEntity
  8
default
  6
Continuous
 62
     5
100
AcDbLine
 10
-21.895
 20
6.136
 30
-16.134
 11
-65.84999999999999
 21
8.567999999999999
 31
-16.76
  0
LINE
  5
2A9
330
1E
100
AcDbEntity
  8
default
  6
Continuous
 62
     5
100
AcDbLine
 10
21.838
 20
5.017999999999999
 30
-14.45199999999999
 11
65.718
 21
7.355
 31
-15.52
  0
LINE
  5
2AA
330
1E
100
AcDbEntity
  8
default
  6
Continuous
 62
     5
100
AcDbLine
 10
-21.838
 20
5.017999999999999
 30
-14.45199999999999
 11
-65.718
 21
7.355
 31
-15.52
  0
LINE
  5
2AB
330
1E
100
AcDbEntity
  8
default
  6
Continuous
 62
     5
100
AcDbLine
 10
21.78199999999999
 20
4.038999999999999
 30
-12.80299999999999
 11
65.58800000000001
 21
6.282999999999999
 31
-14.29499999999999
  0
LINE
  5
2AC
330
1E
100
AcDbEntity
  8
default
  6
Continuous
 62
     5
100
AcDbLine
 10
-21.78199999999999
 20
4.038999999999999
 30
-12.80299999999999
 11
-65.58800000000001
 21
6.282999999999999
 31
-14.29499999999999
  0
LINE
  5
2AD
330
1E
100
AcDbEntity
  8
default
  6
Continuous
 62
     5
100
AcDbLine
 10
21.72699999999999
 20
3.191
 30
-11.19199999999999
 11
65.45999999999999
 21
5.342
 31
-13.09
  0
LINE
  5
2AE
330
1E
100
AcDbEntity
  8
default
  6
Continuous
 62
     5
100
AcDbLine
 10
-21.72699999999999
 20
3.191
 30
-11.19199999999999
 11
-65.45999999999999
 21
5.342
 31
-13.09
  0
LINE
  5
2AF
330
1E
100
AcDbEntity
  8
default
  6
Continuous
 62
     5
100
AcDbLine
 10
21.674
 20
2.468999999999999
 30
-9.624
 11
65.335
 21
4.528999999999999
 31
-11.909
  0
LINE
  5
2B0
330
1E
100
AcDbEntity
  8
default
  6
Continuous
 62
     5
100
AcDbLine
 10
-21.674
 20
2.468999999999999
 30
-9.624
 11
-65.335
 21
4.528999999999999
 31
-11.909
  0
LINE
  5
2B1
330
1E
100
AcDbEntity
  8
default
  6
Continuous
 62
     5
100
AcDbLine
 10
21.62199999999999
 20
1.863
 30
-8.102999999999999
 11
65.212
 21
3.833
 31
-10.757
  0
LINE
  5
2B2
330
1E
100
AcDbEntity
  8
default
  6
Continuous
 62
     5
100
AcDbLine
 10
-21.62199999999999
 20
1.863
 30
-8.102999999999999
 11
-65.212
 21
3.833
 31
-10.757
  0
LINE
  5
2B3
330
1E
100
AcDbEntity
  8
default
  6
Continuous
 62
     5
100
AcDbLine
 10
21.572
 20
1.370999999999999
 30
-6.641
 11
65.09399999999999
 21
3.253999999999999
 31
-9.642000000000001
  0
LINE
  5
2B4
330
1E
100
AcDbEntity
  8
default
  6
Continuous
 62
     5
100
AcDbLine
 10
-21.572
 20
1.370999999999999
 30
-6.641
 11
-65.09399999999999
 21
3.253999999999999
 31
-9.642000000000001
  0
LINE
  5
2B5
330
1E
100
AcDbEntity
  8
default
  6
Continuous
 62
     5
100
AcDbLine
 10
21.524
 20
0.9779999999999999
 30
-5.217999999999999
 11
64.97800000000001
 21
2.776
 31
-8.55
  0
LINE
  5
2B6
330
1E
100
AcDbEntity
  8
default
  6
Continuous
 62
     5
100
AcDbLine
 10
-21.524
 20
0.9779999999999999
 30
-5.217999999999999
 11
-64.97800000000001
 21
2.776
 31
-8.55
  0
LINE
  5
2B7
330
1E
100
AcDbEntity
  8
default
  6
Continuous
 62
     5
100
AcDbLine
 10
21.478
 20
0.666
 30
-3.859999999999999
 11
64.867
 21
2.381999999999999
 31
-7.502999999999999
  0
LINE
  5
2B8
330
1E
100
AcDbEntity
  8
default
  6
Continuous
 62
     5
100
AcDbLine
 10
-21.478
 20
0.666
 30
-3.859999999999999
 11
-64.867
 21
2.381999999999999
 31
-7.502999999999999
  0
LINE
  5
2B9
330
1E
100
AcDbEntity
  8
default
  6
Continuous
 62
     5
100
AcDbLine
 10
21.43
 20
0.425
 30
-2.471999999999999
 11
64.753
 21
2.056
 31
-6.427999999999999
  0
LINE
  5
2BA
330
1E
100
AcDbEntity
  8
default
  6
Continuous
 62
     5
100
AcDbLine
 10
-21.43
 20
0.425
 30
-2.471999999999999
 11
-64.753
 21
2.056
 31
-6.427999999999999
  0
LINE
  5
2BB
330
1E
100
AcDbEntity
  8
default
  6
Continuous
 62
     5
100
AcDbLine
 10
21.39
 20
0.247
 30
-1.299
 11
64.65600000000001
 21
1.807
 31
-5.514999999999999
  0
LINE
  5
2BC
330
1E
100
AcDbEntity
  8
default
  6
Continuous
 62
     5
100
AcDbLine
 10
-21.39
 20
0.247
 30
-1.299
 11
-64.65600000000001
 21
1.807
 31
-5.514999999999999
  0
LINE
  5
2BD
330
1E
100
AcDbEntity
  8
default
  6
Continuous
 62
     5
100
AcDbLine
 10
21.333
 20
0.151
 30
0.377
 11
64.51699999999999
 21
1.607
 31
-4.201
  0
LINE
  5
2BE
330
1E
100
AcDbEntity
  8
default
  6
Continuous
 62
     5
100
AcDbLine
 10
-21.333
 20
0.151
 30
0.377
 11
-64.51699999999999
 21
1.607
 31
-4.201
  0
LINE
  5
2BF
330
1E
100
AcDbEntity
  8
default
  6
Continuous
 62
     5
100
AcDbLine
 10
21.329
 20
0.157
 30
0.51
 11
64.50499999999999
 21
1.604999999999999
 31
-4.096
  0
LINE
  5
2C0
330
1E
100
AcDbEntity
  8
default
  6
Continuous
 62
     5
100
AcDbLine
 10
-21.329
 20
0.157
 30
0.51
 11
-64.50499999999999
 21
1.604999999999999
 31
-4.096
  0
LINE
  5
2C1
330
1E
100
AcDbEntity
  8
default
  6
Continuous
 62
     5
100
AcDbLine
 10
21.265
 20
0.291
 30
2.384999999999999
 11
64.34699999999999
 21
1.62
 31
-2.606999999999999
  0
LINE
  5
2C2
330
1E
100
AcDbEntity
  8
default
  6
Continuous
 62
     5
100
AcDbLine
 10
-21.265
 20
0.291
 30
2.384999999999999
 11
-64.34699999999999
 21
1.62
 31
-2.606999999999999
  0
LINE
  5
2C3
330
1E
100
AcDbEntity
  8
default
  6
Continuous
 62
     5
100
AcDbLine
 10
21.23699999999999
 20
0.5670000000000001
 30
3.22
 11
64.27500000000001
 21
1.841999999999999
 31
-1.926999999999999
  0
LINE
  5
2C4
330
1E
100
AcDbEntity
  8
default
  6
Continuous
 62
     5
100
AcDbLine
 10
-21.23699999999999
 20
0.5670000000000001
 30
3.22
 11
-64.27500000000001
 21
1.841999999999999
 31
-1.926999999999999
  0
LINE
  5
2C5
330
1E
100
AcDbEntity
  8
default
  6
Continuous
 62
     5
100
AcDbLine
 10
21.201
 20
0.99
 30
4.251999999999999
 11
64.185
 21
2.195999999999999
 31
-1.08
  0
LINE
  5
2C6
330
1E
100
AcDbEntity
  8
default
  6
Continuous
 62
     5
100
AcDbLine
 10
-21.201
 20
0.99
 30
4.251999999999999
 11
-64.185
 21
2.195999999999999
 31
-1.08
  0
LINE
  5
2C7
330
1E
100
AcDbEntity
  8
default
  6
Continuous
 62
     5
100
AcDbLine
 10
21.169
 20
1.56
 30
5.189
 11
64.102
 21
2.703999999999999
 31
-0.296
  0
LINE
  5
2C8
330
1E
100
AcDbEntity
  8
default
  6
Continuous
 62
     5
100
AcDbLine
 10
-21.169
 20
1.56
 30
5.189
 11
-64.102
 21
2.703999999999999
 31
-0.296
  0
LINE
  5
2C9
330
1E
100
AcDbEntity
  8
default
  6
Continuous
 62
     5
100
AcDbLine
 10
21.14
 20
2.282999999999999
 30
6.065999999999999
 11
64.023
 21
3.365
 31
0.451
  0
LINE
  5
2CA
330
1E
100
AcDbEntity
  8
default
  6
Continuous
 62
     5
100
AcDbLine
 10
-21.14
 20
2.282999999999999
 30
6.065999999999999
 11
-64.023
 21
3.365
 31
0.451
  0
LINE
  5
2CB
330
1E
100
AcDbEntity
  8
default
  6
Continuous
 62
     5
100
AcDbLine
 10
21.11199999999999
 20
3.153999999999999
 30
6.865
 11
63.94899999999999
 21
4.177999999999999
 31
1.149
  0
LINE
  5
2CC
330
1E
100
AcDbEntity
  8
default
  6
Continuous
 62
     5
100
AcDbLine
 10
-21.11199999999999
 20
3.153999999999999
 30
6.865
 11
-63.94899999999999
 21
4.177999999999999
 31
1.149
  0
LINE
  5
2CD
330
1E
100
AcDbEntity
  8
default
  6
Continuous
 62
     5
100
AcDbLine
 10
21.087
 20
4.173
 30
7.622
 11
63.87699999999999
 21
5.139999999999999
 31
1.824
  0
LINE
  5
2CE
330
1E
100
AcDbEntity
  8
default
  6
Continuous
 62
     5
100
AcDbLine
 10
-21.087
 20
4.173
 30
7.622
 11
-63.87699999999999
 21
5.139999999999999
 31
1.824
  0
LINE
  5
2CF
330
1E
100
AcDbEntity
  8
default
  6
Continuous
 62
     1
100
AcDbLine
 10
63.837
 20
5.747
 30
2.197999999999999
 11
63.805
 21
6.24
 31
2.500999999999999
  0
LINE
  5
2D0
330
1E
100
AcDbEntity
  8
default
  6
Continuous
 62
     1
100
AcDbLine
 10
-63.837
 20
5.747
 30
2.197999999999999
 11
-63.805
 21
6.24
 31
2.500999999999999
  0
LINE
  5
2D1
330
1E
100
AcDbEntity
  8
default
  6
Continuous
 62
     1
100
AcDbLine
 10
63.805
 20
6.24
 30
2.500999999999999
 11
63.733
 21
7.461
 31
3.178999999999999
  0
LINE
  5
2D2
330
1E
100
AcDbEntity
  8
default
  6
Continuous
 62
     1
100
AcDbLine
 10
-63.805
 20
6.24
 30
2.500999999999999
 11
-63.733
 21
7.461
 31
3.178999999999999
  0
LINE
  5
2D3
330
1E
100
AcDbEntity
  8
default
  6
Continuous
 62
     1
100
AcDbLine
 10
63.733
 20
7.461
 30
3.178999999999999
 11
63.661
 21
8.814999999999999
 31
3.856999999999999
  0
LINE
  5
2D4
330
1E
100
AcDbEntity
  8
default
  6
Continuous
 62
     1
100
AcDbLine
 10
-63.733
 20
7.461
 30
3.178999999999999
 11
-63.661
 21
8.814999999999999
 31
3.856999999999999
  0
LINE
  5
2D5
330
1E
100
AcDbEntity
  8
default
  6
Continuous
 62
     1
100
AcDbLine
 10
63.661
 20
8.814999999999999
 30
3.856999999999999
 11
63.589
 21
10.32699999999999
 31
4.535
  0
LINE
  5
2D6
330
1E
100
AcDbEntity
  8
default
  6
Continuous
 62
     1
100
AcDbLine
 10
-63.661
 20
8.814999999999999
 30
3.856999999999999
 11
-63.589
 21
10.32699999999999
 31
4.535
  0
LINE
  5
2D7
330
1E
100
AcDbEntity
  8
default
  6
Continuous
 62
     1
100
AcDbLine
 10
63.589
 20
10.32699999999999
 30
4.535
 11
63.51600000000001
 21
12.015
 31
5.218999999999999
  0
LINE
  5
2D8
330
1E
100
AcDbEntity
  8
default
  6
Continuous
 62
     1
100
AcDbLine
 10
-63.589
 20
10.32699999999999
 30
4.535
 11
-63.51600000000001
 21
12.015
 31
5.218999999999999
  0
LINE
  5
2D9
330
1E
100
AcDbEntity
  8
default
  6
Continuous
 62
     1
100
AcDbLine
 10
63.51600000000001
 20
12.015
 30
5.218999999999999
 11
63.443
 21
13.914
 31
5.913999999999999
  0
LINE
  5
2DA
330
1E
100
AcDbEntity
  8
default
  6
Continuous
 62
     1
100
AcDbLine
 10
-63.51600000000001
 20
12.015
 30
5.218999999999999
 11
-63.443
 21
13.914
 31
5.913999999999999
  0
LINE
  5
2DB
330
1E
100
AcDbEntity
  8
default
  6
Continuous
 62
     1
100
AcDbLine
 10
63.443
 20
13.914
 30
5.913999999999999
 11
63.373
 21
15.854
 31
6.567
  0
LINE
  5
2DC
330
1E
100
AcDbEntity
  8
default
  6
Continuous
 62
     1
100
AcDbLine
 10
-63.443
 20
13.914
 30
5.913999999999999
 11
-63.373
 21
15.854
 31
6.567
  0
LINE
  5
2DD
330
1E
100
AcDbEntity
  8
default
  6
Continuous
 62
     1
100
AcDbLine
 10
63.373
 20
15.854
 30
6.567
 11
63.272
 21
18.97299999999999
 31
7.524
  0
LINE
  5
2DE
330
1E
100
AcDbEntity
  8
default
  6
Continuous
 62
     1
100
AcDbLine
 10
-63.373
 20
15.854
 30
6.567
 11
-63.272
 21
18.97299999999999
 31
7.524
  0
LINE
  5
2DF
330
1E
100
AcDbEntity
  8
default
  6
Continuous
 62
     3
100
AcDbLine
 10
63.272
 20
18.97299999999999
 30
7.524
 11
63.203
 21
21.25599999999999
 31
8.173
  0
LINE
  5
2E0
330
1E
100
AcDbEntity
  8
default
  6
Continuous
 62
     3
100
AcDbLine
 10
-63.272
 20
18.97299999999999
 30
7.524
 11
-63.203
 21
21.25599999999999
 31
8.173
  0
LINE
  5
2E1
330
1E
100
AcDbEntity
  8
default
  6
Continuous
 62
     3
100
AcDbLine
 10
63.203
 20
21.25599999999999
 30
8.173
 11
63.11399999999999
 21
24.427
 31
9.011000000000001
  0
LINE
  5
2E2
330
1E
100
AcDbEntity
  8
default
  6
Continuous
 62
     3
100
AcDbLine
 10
-63.203
 20
21.25599999999999
 30
8.173
 11
-63.11399999999999
 21
24.427
 31
9.011000000000001
  0
LINE
  5
2E3
330
1E
100
AcDbEntity
  8
default
  6
Continuous
 62
     3
100
AcDbLine
 10
63.11399999999999
 20
24.427
 30
9.011000000000001
 11
63.01899999999999
 21
28.07
 31
9.907
  0
LINE
  5
2E4
330
1E
100
AcDbEntity
  8
default
  6
Continuous
 62
     3
100
AcDbLine
 10
-63.11399999999999
 20
24.427
 30
9.011000000000001
 11
-63.01899999999999
 21
28.07
 31
9.907
  0
LINE
  5
2E5
330
1E
100
AcDbEntity
  8
default
  6
Continuous
 62
     3
100
AcDbLine
 10
63.01899999999999
 20
28.07
 30
9.907
 11
62.917
 21
32.28
 31
10.86799999999999
  0
LINE
  5
2E6
330
1E
100
AcDbEntity
  8
default
  6
Continuous
 62
     3
100
AcDbLine
 10
-63.01899999999999
 20
28.07
 30
9.907
 11
-62.917
 21
32.28
 31
10.86799999999999
  0
LINE
  5
2E7
330
1E
100
AcDbEntity
  8
default
  6
Continuous
 62
     3
100
AcDbLine
 10
62.917
 20
32.28
 30
10.86799999999999
 11
62.808
 21
37.13599999999999
 31
11.892
  0
LINE
  5
2E8
330
1E
100
AcDbEntity
  8
default
  6
Continuous
 62
     3
100
AcDbLine
 10
-62.917
 20
32.28
 30
10.86799999999999
 11
-62.808
 21
37.13599999999999
 31
11.892
  0
LINE
  5
2E9
330
1E
100
AcDbEntity
  8
default
  6
Continuous
 62
     3
100
AcDbLine
 10
62.808
 20
37.13599999999999
 30
11.892
 11
62.694
 21
42.692
 31
12.969
  0
LINE
  5
2EA
330
1E
100
AcDbEntity
  8
default
  6
Continuous
 62
     3
100
AcDbLine
 10
-62.808
 20
37.13599999999999
 30
11.892
 11
-62.694
 21
42.692
 31
12.969
  0
LINE
  5
2EB
330
1E
100
AcDbEntity
  8
default
  6
Continuous
 62
     3
100
AcDbLine
 10
62.694
 20
42.692
 30
12.969
 11
62.578
 21
48.942
 31
14.061
  0
LINE
  5
2EC
330
1E
100
AcDbEntity
  8
default
  6
Continuous
 62
     3
100
AcDbLine
 10
-62.694
 20
42.692
 30
12.969
 11
-62.578
 21
48.942
 31
14.061
  0
LINE
  5
2ED
330
1E
100
AcDbEntity
  8
default
  6
Continuous
 62
     3
100
AcDbLine
 10
62.578
 20
48.942
 30
14.061
 11
62.463
 21
55.802
 31
15.142
  0
LINE
  5
2EE
330
1E
100
AcDbEntity
  8
default
  6
Continuous
 62
     3
100
AcDbLine
 10
-62.578
 20
48.942
 30
14.061
 11
-62.463
 21
55.802
 31
15.142
  0
LINE
  5
2EF
330
1E
100
AcDbEntity
  8
default
  6
Continuous
 62
     3
100
AcDbLine
 10
62.463
 20
55.802
 30
15.142
 11
62.353
 21
63.119
 31
16.182
  0
LINE
  5
2F0
330
1E
100
AcDbEntity
  8
default
  6
Continuous
 62
     3
100
AcDbLine
 10
-62.463
 20
55.802
 30
15.142
 11
-62.353
 21
63.119
 31
16.182
  0
LINE
  5
2F1
330
1E
100
AcDbEntity
  8
default
  6
Continuous
 62
     3
100
AcDbLine
 10
62.353
 20
63.119
 30
16.182
 11
62.248
 21
70.788
 31
17.167
  0
LINE
  5
2F2
330
1E
100
AcDbEntity
  8
default
  6
Continuous
 62
     3
100
AcDbLine
 10
-62.353
 20
63.119
 30
16.182
 11
-62.248
 21
70.788
 31
17.167
  0
LINE
  5
2F3
330
1E
100
AcDbEntity
  8
default
  6
Continuous
 62
     3
100
AcDbLine
 10
62.248
 20
70.788
 30
17.167
 11
62.151
 21
78.718
 31
18.083
  0
LINE
  5
2F4
330
1E
100
AcDbEntity
  8
default
  6
Continuous
 62
     3
100
AcDbLine
 10
-62.248
 20
70.788
 30
17.167
 11
-62.151
 21
78.718
 31
18.083
  0
LINE
  5
2F5
330
1E
100
AcDbEntity
  8
default
  6
Continuous
 62
     3
100
AcDbLine
 10
62.151
 20
78.718
 30
18.083
 11
62.06199999999999
 21
86.82299999999999
 31
18.92299999999999
  0
LINE
  5
2F6
330
1E
100
AcDbEntity
  8
default
  6
Continuous
 62
     3
100
AcDbLine
 10
-62.151
 20
78.718
 30
18.083
 11
-62.06199999999999
 21
86.82299999999999
 31
18.92299999999999
  0
LINE
  5
2F7
330
1E
100
AcDbEntity
  8
default
  6
Continuous
 62
     3
100
AcDbLine
 10
62.06199999999999
 20
86.82299999999999
 30
18.92299999999999
 11
61.98199999999999
 21
95.022
 31
19.672
  0
LINE
  5
2F8
330
1E
100
AcDbEntity
  8
default
  6
Continuous
 62
     3
100
AcDbLine
 10
-62.06199999999999
 20
86.82299999999999
 30
18.92299999999999
 11
-61.98199999999999
 21
95.022
 31
19.672
  0
LINE
  5
2F9
330
1E
100
AcDbEntity
  8
default
  6
Continuous
 62
     3
100
AcDbLine
 10
61.98199999999999
 20
95.022
 30
19.672
 11
61.913
 21
103.252
 31
20.324
  0
LINE
  5
2FA
330
1E
100
AcDbEntity
  8
default
  6
Continuous
 62
     3
100
AcDbLine
 10
-61.98199999999999
 20
95.022
 30
19.672
 11
-61.913
 21
103.252
 31
20.324
  0
LINE
  5
2FB
330
1E
100
AcDbEntity
  8
default
  6
Continuous
 62
     3
100
AcDbLine
 10
61.913
 20
103.252
 30
20.324
 11
61.855
 21
111.4929999999999
 31
20.86899999999999
  0
LINE
  5
2FC
330
1E
100
AcDbEntity
  8
default
  6
Continuous
 62
     3
100
AcDbLine
 10
-61.913
 20
103.252
 30
20.324
 11
-61.855
 21
111.4929999999999
 31
20.86899999999999
  0
LINE
  5
2FD
330
1E
100
AcDbEntity
  8
default
  6
Continuous
 62
     3
100
AcDbLine
 10
61.855
 20
111.4929999999999
 30
20.86899999999999
 11
61.80699999999999
 21
119.7559999999999
 31
21.318
  0
LINE
  5
2FE
330
1E
100
AcDbEntity
  8
default
  6
Continuous
 62
     3
100
AcDbLine
 10
-61.855
 20
111.4929999999999
 30
20.86899999999999
 11
-61.80699999999999
 21
119.7559999999999
 31
21.318
  0
LINE
  5
2FF
330
1E
100
AcDbEntity
  8
default
  6
Continuous
 62
     3
100
AcDbLine
 10
61.80699999999999
 20
119.7559999999999
 30
21.318
 11
61.76899999999999
 21
128.067
 31
21.678
  0
LINE
  5
300
330
1E
100
AcDbEntity
  8
default
  6
Continuous
 62
     3
100
AcDbLine
 10
-61.80699999999999
 20
119.7559999999999
 30
21.318
 11
-61.76899999999999
 21
128.067
 31
21.678
  0
LINE
  5
301
330
1E
100
AcDbEntity
  8
default
  6
Continuous
 62
     3
100
AcDbLine
 10
61.76899999999999
 20
128.067
 30
21.678
 11
61.73899999999999
 21
136.462
 31
21.96599999999999
  0
LINE
  5
302
330
1E
100
AcDbEntity
  8
default
  6
Continuous
 62
     3
100
AcDbLine
 10
-61.76899999999999
 20
128.067
 30
21.678
 11
-61.73899999999999
 21
136.462
 31
21.96599999999999
  0
LINE
  5
303
330
1E
100
AcDbEntity
  8
default
  6
Continuous
 62
     3
100
AcDbLine
 10
61.73899999999999
 20
136.462
 30
21.96599999999999
 11
61.715
 21
144.95
 31
22.18599999999999
  0
LINE
  5
304
330
1E
100
AcDbEntity
  8
default
  6
Continuous
 62
     3
100
AcDbLine
 10
-61.73899999999999
 20
136.462
 30
21.96599999999999
 11
-61.715
 21
144.95
 31
22.18599999999999
  0
LINE
  5
305
330
1E
100
AcDbEntity
  8
default
  6
Continuous
 62
     3
100
AcDbLine
 10
61.715
 20
144.95
 30
22.18599999999999
 11
61.699
 21
153.507
 31
22.33999999999999
  0
LINE
  5
306
330
1E
100
AcDbEntity
  8
default
  6
Continuous
 62
     3
100
AcDbLine
 10
-61.715
 20
144.95
 30
22.18599999999999
 11
-61.699
 21
153.507
 31
22.33999999999999
  0
LINE
  5
307
330
1E
100
AcDbEntity
  8
default
  6
Continuous
 62
     3
100
AcDbLine
 10
61.699
 20
153.507
 30
22.33999999999999
 11
61.68899999999999
 21
162.1059999999999
 31
22.433
  0
LINE
  5
308
330
1E
100
AcDbEntity
  8
default
  6
Continuous
 62
     3
100
AcDbLine
 10
-61.699
 20
153.507
 30
22.33999999999999
 11
-61.68899999999999
 21
162.1059999999999
 31
22.433
  0
LINE
  5
309
330
1E
100
AcDbEntity
  8
default
  6
Continuous
 62
     3
100
AcDbLine
 10
61.68899999999999
 20
162.1059999999999
 30
22.433
 11
61.68600000000001
 21
170.722
 31
22.463
  0
LINE
  5
30A
330
1E
100
AcDbEntity
  8
default
  6
Continuous
 62
     3
100
AcDbLine
 10
-61.68899999999999
 20
162.1059999999999
 30
22.433
 11
-61.68600000000001
 21
170.722
 31
22.463
  0
LINE
  5
30B
330
1E
100
AcDbEntity
  8
default
  6
Continuous
 62
     3
100
AcDbLine
 10
61.68600000000001
 20
170.722
 30
22.463
 11
61.68899999999999
 21
179.352
 31
22.43199999999999
  0
LINE
  5
30C
330
1E
100
AcDbEntity
  8
default
  6
Continuous
 62
     3
100
AcDbLine
 10
-61.68600000000001
 20
170.722
 30
22.463
 11
-61.68899999999999
 21
179.352
 31
22.43199999999999
  0
LINE
  5
30D
330
1E
100
AcDbEntity
  8
default
  6
Continuous
 62
     3
100
AcDbLine
 10
61.68899999999999
 20
179.352
 30
22.43199999999999
 11
61.698
 21
188.009
 31
22.345
  0
LINE
  5
30E
330
1E
100
AcDbEntity
  8
default
  6
Continuous
 62
     3
100
AcDbLine
 10
-61.68899999999999
 20
179.352
 30
22.43199999999999
 11
-61.698
 21
188.009
 31
22.345
  0
LINE
  5
30F
330
1E
100
AcDbEntity
  8
default
  6
Continuous
 62
     3
100
AcDbLine
 10
61.698
 20
188.009
 30
22.345
 11
61.713
 21
196.699
 31
22.204
  0
LINE
  5
310
330
1E
100
AcDbEntity
  8
default
  6
Continuous
 62
     3
100
AcDbLine
 10
-61.698
 20
188.009
 30
22.345
 11
-61.713
 21
196.699
 31
22.204
  0
LINE
  5
311
330
1E
100
AcDbEntity
  8
default
  6
Continuous
 62
     3
100
AcDbLine
 10
61.713
 20
196.699
 30
22.204
 11
61.73399999999999
 21
205.417
 31
22.008
  0
LINE
  5
312
330
1E
100
AcDbEntity
  8
default
  6
Continuous
 62
     3
100
AcDbLine
 10
-61.713
 20
196.699
 30
22.204
 11
-61.73399999999999
 21
205.417
 31
22.008
  0
LINE
  5
313
330
1E
100
AcDbEntity
  8
default
  6
Continuous
 62
     3
100
AcDbLine
 10
61.73399999999999
 20
205.417
 30
22.008
 11
61.76
 21
214.145
 31
21.76699999999999
  0
LINE
  5
314
330
1E
100
AcDbEntity
  8
default
  6
Continuous
 62
     3
100
AcDbLine
 10
-61.73399999999999
 20
205.417
 30
22.008
 11
-61.76
 21
214.145
 31
21.76699999999999
  0
LINE
  5
315
330
1E
100
AcDbEntity
  8
default
  6
Continuous
 62
     3
100
AcDbLine
 10
61.76
 20
214.145
 30
21.76699999999999
 11
61.79
 21
222.8499999999999
 31
21.48099999999999
  0
LINE
  5
316
330
1E
100
AcDbEntity
  8
default
  6
Continuous
 62
     3
100
AcDbLine
 10
-61.76
 20
214.145
 30
21.76699999999999
 11
-61.79
 21
222.8499999999999
 31
21.48099999999999
  0
LINE
  5
317
330
1E
100
AcDbEntity
  8
default
  6
Continuous
 62
     3
100
AcDbLine
 10
61.79
 20
222.8499999999999
 30
21.48099999999999
 11
61.824
 21
231.519
 31
21.16099999999999
  0
LINE
  5
318
330
1E
100
AcDbEntity
  8
default
  6
Continuous
 62
     3
100
AcDbLine
 10
-61.79
 20
222.8499999999999
 30
21.48099999999999
 11
-61.824
 21
231.519
 31
21.16099999999999
  0
LINE
  5
319
330
1E
100
AcDbEntity
  8
default
  6
Continuous
 62
     3
100
AcDbLine
 10
61.824
 20
231.519
 30
21.16099999999999
 11
61.861
 21
240.194
 31
20.80999999999999
  0
LINE
  5
31A
330
1E
100
AcDbEntity
  8
default
  6
Continuous
 62
     3
100
AcDbLine
 10
-61.824
 20
231.519
 30
21.16099999999999
 11
-61.861
 21
240.194
 31
20.80999999999999
  0
LINE
  5
31B
330
1E
100
AcDbEntity
  8
default
  6
Continuous
 62
     3
100
AcDbLine
 10
61.861
 20
240.194
 30
20.80999999999999
 11
61.90100000000001
 21
248.938
 31
20.43499999999999
  0
LINE
  5
31C
330
1E
100
AcDbEntity
  8
default
  6
Continuous
 62
     3
100
AcDbLine
 10
-61.861
 20
240.194
 30
20.80999999999999
 11
-61.90100000000001
 21
248.938
 31
20.43499999999999
  0
LINE
  5
31D
330
1E
100
AcDbEntity
  8
default
  6
Continuous
 62
     3
100
AcDbLine
 10
61.90100000000001
 20
248.938
 30
20.43499999999999
 11
61.94399999999999
 21
257.757
 31
20.032
  0
LINE
  5
31E
330
1E
100
AcDbEntity
  8
default
  6
Continuous
 62
     3
100
AcDbLine
 10
-61.90100000000001
 20
248.938
 30
20.43499999999999
 11
-61.94399999999999
 21
257.757
 31
20.032
  0
LINE
  5
31F
330
1E
100
AcDbEntity
  8
default
  6
Continuous
 62
     3
100
AcDbLine
 10
61.94399999999999
 20
257.757
 30
20.032
 11
61.988
 21
266.332
 31
19.62
  0
LINE
  5
320
330
1E
100
AcDbEntity
  8
default
  6
Continuous
 62
     3
100
AcDbLine
 10
-61.94399999999999
 20
257.757
 30
20.032
 11
-61.988
 21
266.332
 31
19.62
  0
LINE
  5
321
330
1E
100
AcDbEntity
  8
default
  6
Continuous
 62
     3
100
AcDbLine
 10
61.988
 20
266.332
 30
19.62
 11
62.02899999999999
 21
274.174
 31
19.23
  0
LINE
  5
322
330
1E
100
AcDbEntity
  8
default
  6
Continuous
 62
     3
100
AcDbLine
 10
-61.988
 20
266.332
 30
19.62
 11
-62.02899999999999
 21
274.174
 31
19.23
  0
LINE
  5
323
330
1E
100
AcDbEntity
  8
default
  6
Continuous
 62
     3
100
AcDbLine
 10
62.02899999999999
 20
274.174
 30
19.23
 11
62.066
 21
280.982
 31
18.87699999999999
  0
LINE
  5
324
330
1E
100
AcDbEntity
  8
default
  6
Continuous
 62
     3
100
AcDbLine
 10
-62.02899999999999
 20
274.174
 30
19.23
 11
-62.066
 21
280.982
 31
18.87699999999999
  0
LINE
  5
325
330
1E
100
AcDbEntity
  8
default
  6
Continuous
 62
     3
100
AcDbLine
 10
62.066
 20
280.982
 30
18.87699999999999
 11
62.099
 21
286.7879999999999
 31
18.569
  0
LINE
  5
326
330
1E
100
AcDbEntity
  8
default
  6
Continuous
 62
     3
100
AcDbLine
 10
-62.066
 20
280.982
 30
18.87699999999999
 11
-62.099
 21
286.7879999999999
 31
18.569
  0
LINE
  5
327
330
1E
100
AcDbEntity
  8
default
  6
Continuous
 62
     3
100
AcDbLine
 10
62.099
 20
286.7879999999999
 30
18.569
 11
62.11899999999999
 21
290.194
 31
18.384
  0
LINE
  5
328
330
1E
100
AcDbEntity
  8
default
  6
Continuous
 62
     3
100
AcDbLine
 10
-62.099
 20
286.7879999999999
 30
18.569
 11
-62.11899999999999
 21
290.194
 31
18.384
  0
LINE
  5
329
330
1E
100
AcDbEntity
  8
default
  6
Continuous
 62
     3
100
AcDbLine
 10
20.889
 20
18.5
 30
13.439
 11
63.272
 21
18.97299999999999
 31
7.524
  0
LINE
  5
32A
330
1E
100
AcDbEntity
  8
default
  6
Continuous
 62
     3
100
AcDbLine
 10
-20.889
 20
18.5
 30
13.439
 11
-63.272
 21
18.97299999999999
 31
7.524
  0
LINE
  5
32B
330
1E
100
AcDbEntity
  8
default
  6
Continuous
 62
     3
100
AcDbLine
 10
20.868
 20
20.84099999999999
 30
14.032
 11
63.203
 21
21.25599999999999
 31
8.173
  0
LINE
  5
32C
330
1E
100
AcDbEntity
  8
default
  6
Continuous
 62
     3
100
AcDbLine
 10
-20.868
 20
20.84099999999999
 30
14.032
 11
-63.203
 21
21.25599999999999
 31
8.173
  0
LINE
  5
32D
330
1E
100
AcDbEntity
  8
default
  6
Continuous
 62
     3
100
AcDbLine
 10
20.843
 20
24.089
 30
14.77599999999999
 11
63.11399999999999
 21
24.427
 31
9.011000000000001
  0
LINE
  5
32E
330
1E
100
AcDbEntity
  8
default
  6
Continuous
 62
     3
100
AcDbLine
 10
-20.843
 20
24.089
 30
14.77599999999999
 11
-63.11399999999999
 21
24.427
 31
9.011000000000001
  0
LINE
  5
32F
330
1E
100
AcDbEntity
  8
default
  6
Continuous
 62
     3
100
AcDbLine
 10
20.81699999999999
 20
27.814
 30
15.54599999999999
 11
63.01899999999999
 21
28.07
 31
9.907
  0
LINE
  5
330
330
1E
100
AcDbEntity
  8
default
  6
Continuous
 62
     3
100
AcDbLine
 10
-20.81699999999999
 20
27.814
 30
15.54599999999999
 11
-63.01899999999999
 21
28.07
 31
9.907
  0
LINE
  5
331
330
1E
100
AcDbEntity
  8
default
  6
Continuous
 62
     3
100
AcDbLine
 10
20.79
 20
32.113
 30
16.34099999999999
 11
62.917
 21
32.28
 31
10.86799999999999
  0
LINE
  5
332
330
1E
100
AcDbEntity
  8
default
  6
Continuous
 62
     3
100
AcDbLine
 10
-20.79
 20
32.113
 30
16.34099999999999
 11
-62.917
 21
32.28
 31
10.86799999999999
  0
LINE
  5
333
330
1E
100
AcDbEntity
  8
default
  6
Continuous
 62
     3
100
AcDbLine
 10
20.76199999999999
 20
37.064
 30
17.153
 11
62.808
 21
37.13599999999999
 31
11.892
  0
LINE
  5
334
330
1E
100
AcDbEntity
  8
default
  6
Continuous
 62
     3
100
AcDbLine
 10
-20.76199999999999
 20
37.064
 30
17.153
 11
-62.808
 21
37.13599999999999
 31
11.892
  0
LINE
  5
335
330
1E
100
AcDbEntity
  8
default
  6
Continuous
 62
     3
100
AcDbLine
 10
20.735
 20
42.723
 30
17.961
 11
62.694
 21
42.692
 31
12.969
  0
LINE
  5
336
330
1E
100
AcDbEntity
  8
default
  6
Continuous
 62
     3
100
AcDbLine
 10
-20.735
 20
42.723
 30
17.961
 11
-62.694
 21
42.692
 31
12.969
  0
LINE
  5
337
330
1E
100
AcDbEntity
  8
default
  6
Continuous
 62
     3
100
AcDbLine
 10
20.70899999999999
 20
49.078
 30
18.722
 11
62.578
 21
48.942
 31
14.061
  0
LINE
  5
338
330
1E
100
AcDbEntity
  8
default
  6
Continuous
 62
     3
100
AcDbLine
 10
-20.70899999999999
 20
49.078
 30
18.722
 11
-62.578
 21
48.942
 31
14.061
  0
LINE
  5
339
330
1E
100
AcDbEntity
  8
default
  6
Continuous
 62
     3
100
AcDbLine
 10
20.68499999999999
 20
56.045
 30
19.407
 11
62.463
 21
55.802
 31
15.142
  0
LINE
  5
33A
330
1E
100
AcDbEntity
  8
default
  6
Continuous
 62
     3
100
AcDbLine
 10
-20.68499999999999
 20
56.045
 30
19.407
 11
-62.463
 21
55.802
 31
15.142
  0
LINE
  5
33B
330
1E
100
AcDbEntity
  8
default
  6
Continuous
 62
     3
100
AcDbLine
 10
20.665
 20
63.466
 30
19.996
 11
62.353
 21
63.119
 31
16.182
  0
LINE
  5
33C
330
1E
100
AcDbEntity
  8
default
  6
Continuous
 62
     3
100
AcDbLine
 10
-20.665
 20
63.466
 30
19.996
 11
-62.353
 21
63.119
 31
16.182
  0
LINE
  5
33D
330
1E
100
AcDbEntity
  8
default
  6
Continuous
 62
     3
100
AcDbLine
 10
20.649
 20
71.236
 30
20.48099999999999
 11
62.248
 21
70.788
 31
17.167
  0
LINE
  5
33E
330
1E
100
AcDbEntity
  8
default
  6
Continuous
 62
     3
100
AcDbLine
 10
-20.649
 20
71.236
 30
20.48099999999999
 11
-62.248
 21
70.788
 31
17.167
  0
LINE
  5
33F
330
1E
100
AcDbEntity
  8
default
  6
Continuous
 62
     3
100
AcDbLine
 10
20.636
 20
79.26300000000001
 30
20.853
 11
62.151
 21
78.718
 31
18.083
  0
LINE
  5
340
330
1E
100
AcDbEntity
  8
default
  6
Continuous
 62
     3
100
AcDbLine
 10
-20.636
 20
79.26300000000001
 30
20.853
 11
-62.151
 21
78.718
 31
18.083
  0
LINE
  5
341
330
1E
100
AcDbEntity
  8
default
  6
Continuous
 62
     3
100
AcDbLine
 10
20.62699999999999
 20
87.459
 30
21.11199999999999
 11
62.06199999999999
 21
86.82299999999999
 31
18.92299999999999
  0
LINE
  5
342
330
1E
100
AcDbEntity
  8
default
  6
Continuous
 62
     3
100
AcDbLine
 10
-20.62699999999999
 20
87.459
 30
21.11199999999999
 11
-62.06199999999999
 21
86.82299999999999
 31
18.92299999999999
  0
LINE
  5
343
330
1E
100
AcDbEntity
  8
default
  6
Continuous
 62
     3
100
AcDbLine
 10
20.623
 20
95.74200000000001
 30
21.248
 11
61.98199999999999
 21
95.022
 31
19.672
  0
LINE
  5
344
330
1E
100
AcDbEntity
  8
default
  6
Continuous
 62
     3
100
AcDbLine
 10
-20.623
 20
95.74200000000001
 30
21.248
 11
-61.98199999999999
 21
95.022
 31
19.672
  0
LINE
  5
345
330
1E
100
AcDbEntity
  8
default
  6
Continuous
 62
     3
100
AcDbLine
 10
20.622
 20
104.0489999999999
 30
21.25699999999999
 11
61.913
 21
103.252
 31
20.324
  0
LINE
  5
346
330
1E
100
AcDbEntity
  8
default
  6
Continuous
 62
     3
100
AcDbLine
 10
-20.622
 20
104.0489999999999
 30
21.25699999999999
 11
-61.913
 21
103.252
 31
20.324
  0
LINE
  5
347
330
1E
100
AcDbEntity
  8
default
  6
Continuous
 62
     3
100
AcDbLine
 10
20.62699999999999
 20
112.358
 30
21.131
 11
61.855
 21
111.4929999999999
 31
20.86899999999999
  0
LINE
  5
348
330
1E
100
AcDbEntity
  8
default
  6
Continuous
 62
     3
100
AcDbLine
 10
-20.62699999999999
 20
112.358
 30
21.131
 11
-61.855
 21
111.4929999999999
 31
20.86899999999999
  0
LINE
  5
349
330
1E
100
AcDbEntity
  8
default
  6
Continuous
 62
     3
100
AcDbLine
 10
20.635
 20
120.682
 30
20.882
 11
61.80699999999999
 21
119.7559999999999
 31
21.318
  0
LINE
  5
34A
330
1E
100
AcDbEntity
  8
default
  6
Continuous
 62
     3
100
AcDbLine
 10
-20.635
 20
120.682
 30
20.882
 11
-61.80699999999999
 21
119.7559999999999
 31
21.318
  0
LINE
  5
34B
330
1E
100
AcDbEntity
  8
default
  6
Continuous
 62
     3
100
AcDbLine
 10
20.648
 20
129.047
 30
20.51699999999999
 11
61.76899999999999
 21
128.067
 31
21.678
  0
LINE
  5
34C
330
1E
100
AcDbEntity
  8
default
  6
Continuous
 62
     3
100
AcDbLine
 10
-20.648
 20
129.047
 30
20.51699999999999
 11
-61.76899999999999
 21
128.067
 31
21.678
  0
LINE
  5
34D
330
1E
100
AcDbEntity
  8
default
  6
Continuous
 62
     3
100
AcDbLine
 10
20.664
 20
137.49
 30
20.051
 11
61.73899999999999
 21
136.462
 31
21.96599999999999
  0
LINE
  5
34E
330
1E
100
AcDbEntity
  8
default
  6
Continuous
 62
     3
100
AcDbLine
 10
-20.664
 20
137.49
 30
20.051
 11
-61.73899999999999
 21
136.462
 31
21.96599999999999
  0
LINE
  5
34F
330
1E
100
AcDbEntity
  8
default
  6
Continuous
 62
     3
100
AcDbLine
 10
20.683
 20
146.021
 30
19.49099999999999
 11
61.715
 21
144.95
 31
22.18599999999999
  0
LINE
  5
350
330
1E
100
AcDbEntity
  8
default
  6
Continuous
 62
     3
100
AcDbLine
 10
-20.683
 20
146.021
 30
19.49099999999999
 11
-61.715
 21
144.95
 31
22.18599999999999
  0
LINE
  5
351
330
1E
100
AcDbEntity
  8
default
  6
Continuous
 62
     3
100
AcDbLine
 10
20.705
 20
154.616
 30
18.84099999999999
 11
61.699
 21
153.507
 31
22.33999999999999
  0
LINE
  5
352
330
1E
100
AcDbEntity
  8
default
  6
Continuous
 62
     3
100
AcDbLine
 10
-20.705
 20
154.616
 30
18.84099999999999
 11
-61.699
 21
153.507
 31
22.33999999999999
  0
LINE
  5
353
330
1E
100
AcDbEntity
  8
default
  6
Continuous
 62
     3
100
AcDbLine
 10
20.72999999999999
 20
163.2479999999999
 30
18.10999999999999
 11
61.68899999999999
 21
162.1059999999999
 31
22.433
  0
LINE
  5
354
330
1E
100
AcDbEntity
  8
default
  6
Continuous
 62
     3
100
AcDbLine
 10
-20.72999999999999
 20
163.2479999999999
 30
18.10999999999999
 11
-61.68899999999999
 21
162.1059999999999
 31
22.433
  0
LINE
  5
355
330
1E
100
AcDbEntity
  8
default
  6
Continuous
 62
     3
100
AcDbLine
 10
20.75699999999999
 20
171.893
 30
17.298
 11
61.68600000000001
 21
170.722
 31
22.463
  0
LINE
  5
356
330
1E
100
AcDbEntity
  8
default
  6
Continuous
 62
     3
100
AcDbLine
 10
-20.75699999999999
 20
171.893
 30
17.298
 11
-61.68600000000001
 21
170.722
 31
22.463
  0
LINE
  5
357
330
1E
100
AcDbEntity
  8
default
  6
Continuous
 62
     3
100
AcDbLine
 10
20.78699999999999
 20
180.546
 30
16.409
 11
61.68899999999999
 21
179.352
 31
22.43199999999999
  0
LINE
  5
358
330
1E
100
AcDbEntity
  8
default
  6
Continuous
 62
     3
100
AcDbLine
 10
-20.78699999999999
 20
180.546
 30
16.409
 11
-61.68899999999999
 21
179.352
 31
22.43199999999999
  0
LINE
  5
359
330
1E
100
AcDbEntity
  8
default
  6
Continuous
 62
     3
100
AcDbLine
 10
20.82
 20
189.222
 30
15.445
 11
61.698
 21
188.009
 31
22.345
  0
LINE
  5
35A
330
1E
100
AcDbEntity
  8
default
  6
Continuous
 62
     3
100
AcDbLine
 10
-20.82
 20
189.222
 30
15.445
 11
-61.698
 21
188.009
 31
22.345
  0
LINE
  5
35B
330
1E
100
AcDbEntity
  8
default
  6
Continuous
 62
     3
100
AcDbLine
 10
20.85599999999999
 20
197.9279999999999
 30
14.41
 11
61.713
 21
196.699
 31
22.204
  0
LINE
  5
35C
330
1E
100
AcDbEntity
  8
default
  6
Continuous
 62
     3
100
AcDbLine
 10
-20.85599999999999
 20
197.9279999999999
 30
14.41
 11
-61.713
 21
196.699
 31
22.204
  0
LINE
  5
35D
330
1E
100
AcDbEntity
  8
default
  6
Continuous
 62
     3
100
AcDbLine
 10
20.893
 20
206.657
 30
13.304
 11
61.73399999999999
 21
205.417
 31
22.008
  0
LINE
  5
35E
330
1E
100
AcDbEntity
  8
default
  6
Continuous
 62
     3
100
AcDbLine
 10
-20.893
 20
206.657
 30
13.304
 11
-61.73399999999999
 21
205.417
 31
22.008
  0
LINE
  5
35F
330
1E
100
AcDbEntity
  8
default
  6
Continuous
 62
     3
100
AcDbLine
 10
20.933
 20
215.3909999999999
 30
12.14
 11
61.76
 21
214.145
 31
21.76699999999999
  0
LINE
  5
360
330
1E
100
AcDbEntity
  8
default
  6
Continuous
 62
     3
100
AcDbLine
 10
-20.933
 20
215.3909999999999
 30
12.14
 11
-61.76
 21
214.145
 31
21.76699999999999
  0
LINE
  5
361
330
1E
100
AcDbEntity
  8
default
  6
Continuous
 62
     3
100
AcDbLine
 10
20.97399999999999
 20
224.1
 30
10.921
 11
61.79
 21
222.8499999999999
 31
21.48099999999999
  0
LINE
  5
362
330
1E
100
AcDbEntity
  8
default
  6
Continuous
 62
     3
100
AcDbLine
 10
-20.97399999999999
 20
224.1
 30
10.921
 11
-61.79
 21
222.8499999999999
 31
21.48099999999999
  0
LINE
  5
363
330
1E
100
AcDbEntity
  8
default
  6
Continuous
 62
     3
100
AcDbLine
 10
21.017
 20
232.77
 30
9.662
 11
61.824
 21
231.519
 31
21.16099999999999
  0
LINE
  5
364
330
1E
100
AcDbEntity
  8
default
  6
Continuous
 62
     3
100
AcDbLine
 10
-21.017
 20
232.77
 30
9.662
 11
-61.824
 21
231.519
 31
21.16099999999999
  0
LINE
  5
365
330
1E
100
AcDbEntity
  8
default
  6
Continuous
 62
     3
100
AcDbLine
 10
21.061
 20
241.444
 30
8.365
 11
61.861
 21
240.194
 31
20.80999999999999
  0
LINE
  5
366
330
1E
100
AcDbEntity
  8
default
  6
Continuous
 62
     3
100
AcDbLine
 10
-21.061
 20
241.444
 30
8.365
 11
-61.861
 21
240.194
 31
20.80999999999999
  0
LINE
  5
367
330
1E
100
AcDbEntity
  8
default
  6
Continuous
 62
     3
100
AcDbLine
 10
21.107
 20
250.184
 30
7.03
 11
61.90100000000001
 21
248.938
 31
20.43499999999999
  0
LINE
  5
368
330
1E
100
AcDbEntity
  8
default
  6
Continuous
 62
     3
100
AcDbLine
 10
-21.107
 20
250.184
 30
7.03
 11
-61.90100000000001
 21
248.938
 31
20.43499999999999
  0
LINE
  5
369
330
1E
100
AcDbEntity
  8
default
  6
Continuous
 62
     3
100
AcDbLine
 10
21.154
 20
258.997
 30
5.652
 11
61.94399999999999
 21
257.757
 31
20.032
  0
LINE
  5
36A
330
1E
100
AcDbEntity
  8
default
  6
Continuous
 62
     3
100
AcDbLine
 10
-21.154
 20
258.997
 30
5.652
 11
-61.94399999999999
 21
257.757
 31
20.032
  0
LINE
  5
36B
330
1E
100
AcDbEntity
  8
default
  6
Continuous
 62
     3
100
AcDbLine
 10
21.2
 20
267.5659999999999
 30
4.286999999999999
 11
61.988
 21
266.332
 31
19.62
  0
LINE
  5
36C
330
1E
100
AcDbEntity
  8
default
  6
Continuous
 62
     3
100
AcDbLine
 10
-21.2
 20
267.5659999999999
 30
4.286999999999999
 11
-61.988
 21
266.332
 31
19.62
  0
LINE
  5
36D
330
1E
100
AcDbEntity
  8
default
  6
Continuous
 62
     3
100
AcDbLine
 10
21.243
 20
275.401
 30
3.023
 11
62.02899999999999
 21
274.174
 31
19.23
  0
LINE
  5
36E
330
1E
100
AcDbEntity
  8
default
  6
Continuous
 62
     3
100
AcDbLine
 10
-21.243
 20
275.401
 30
3.023
 11
-62.02899999999999
 21
274.174
 31
19.23
  0
LINE
  5
36F
330
1E
100
AcDbEntity
  8
default
  6
Continuous
 62
     3
100
AcDbLine
 10
21.28099999999999
 20
282.2009999999999
 30
1.906999999999999
 11
62.066
 21
280.982
 31
18.87699999999999
  0
LINE
  5
370
330
1E
100
AcDbEntity
  8
default
  6
Continuous
 62
     3
100
AcDbLine
 10
-21.28099999999999
 20
282.2009999999999
 30
1.906999999999999
 11
-62.066
 21
280.982
 31
18.87699999999999
  0
LINE
  5
371
330
1E
100
AcDbEntity
  8
default
  6
Continuous
 62
     3
100
AcDbLine
 10
21.314
 20
288.0
 30
0.9459999999999999
 11
62.099
 21
286.7879999999999
 31
18.569
  0
LINE
  5
372
330
1E
100
AcDbEntity
  8
default
  6
Continuous
 62
     3
100
AcDbLine
 10
-21.314
 20
288.0
 30
0.9459999999999999
 11
-62.099
 21
286.7879999999999
 31
18.569
  0
LINE
  5
373
330
1E
100
AcDbEntity
  8
default
  6
Continuous
 62
     5
100
AcDbLine
 10
21.333
 20
291.4019999999999
 30
0.377
 11
62.11899999999999
 21
290.194
 31
18.384
  0
LINE
  5
374
330
1E
100
AcDbEntity
  8
default
  6
Continuous
 62
     5
100
AcDbLine
 10
-21.333
 20
291.4019999999999
 30
0.377
 11
-62.11899999999999
 21
290.194
 31
18.384
  0
LINE
  5
375
330
1E
100
AcDbEntity
  8
default
  6
Continuous
 62
     5
100
AcDbLine
 10
21.333
 20
291.4019999999999
 30
0.377
 11
-21.333
 21
291.4019999999999
 31
0.377
  0
LINE
  5
376
330
1E
100
AcDbEntity
  8
default
  6
Continuous
 62
     1
100
AcDbLine
 10
-21.07299999999999
 20
4.810999999999999
 30
8.032
 11
21.07299999999999
 21
4.810999999999999
 31
8.032
  0
LINE
  5
377
330
1E
100
AcDbEntity
  8
default
  6
Continuous
 62
     1
100
AcDbLine
 10
21.07299999999999
 20
4.810999999999999
 30
8.032
 11
-21.07299999999999
 21
4.810999999999999
 31
8.032
  0
LINE
  5
378
330
1E
100
AcDbEntity
  8
default
  6
Continuous
 62
     1
100
AcDbLine
 10
-20.889
 20
18.5
 30
13.439
 11
20.889
 21
18.5
 31
13.439
  0
LINE
  5
379
330
1E
100
AcDbEntity
  8
default
  6
Continuous
 62
     1
100
AcDbLine
 10
20.889
 20
18.5
 30
13.439
 11
-20.889
 21
18.5
 31
13.439
  0
LINE
  5
37A
330
1E
100
AcDbEntity
  8
default
  6
Continuous
 62
     1
100
AcDbLine
 10
21.07299999999999
 20
4.810999999999999
 30
8.032
 11
63.837
 21
5.747
 31
2.197999999999999
  0
LINE
  5
37B
330
1E
100
AcDbEntity
  8
default
  6
Continuous
 62
     1
100
AcDbLine
 10
-21.07299999999999
 20
4.810999999999999
 30
8.032
 11
-63.837
 21
5.747
 31
2.197999999999999
  0
LINE
  5
37C
330
1E
100
AcDbEntity
  8
default
  6
Continuous
 62
     1
100
AcDbLine
 10
20.889
 20
18.5
 30
13.439
 11
63.837
 21
5.747
 31
2.197999999999999
  0
LINE
  5
37D
330
1E
100
AcDbEntity
  8
default
  6
Continuous
 62
     1
100
AcDbLine
 10
-20.889
 20
18.5
 30
13.439
 11
-63.837
 21
5.747
 31
2.197999999999999
  0
LINE
  5
37E
330
1E
100
AcDbEntity
  8
default
  6
Continuous
 62
     1
100
AcDbLine
 10
20.0
 20
72.964
 30
687.7539999999998
 11
20.15299999999999
 21
69.617
 31
640.874
  0
LINE
  5
37F
330
1E
100
AcDbEntity
  8
default
  6
Continuous
 62
     1
100
AcDbLine
 10
-20.0
 20
72.964
 30
687.7539999999998
 11
-20.15299999999999
 21
69.617
 31
640.874
  0
LINE
  5
380
330
1E
100
AcDbEntity
  8
default
  6
Continuous
 62
     1
100
AcDbLine
 10
20.15299999999999
 20
69.617
 30
640.874
 11
21.64099999999999
 21
37.00199999999999
 31
184.039
  0
LINE
  5
381
330
1E
100
AcDbEntity
  8
default
  6
Continuous
 62
     1
100
AcDbLine
 10
-20.15299999999999
 20
69.617
 30
640.874
 11
-21.64099999999999
 21
37.00199999999999
 31
184.039
  0
LINE
  5
382
330
1E
100
AcDbEntity
  8
default
  6
Continuous
 62
     1
100
AcDbLine
 10
21.64099999999999
 20
37.00199999999999
 30
184.039
 11
20.83699999999999
 21
24.90699999999999
 31
14.945
  0
LINE
  5
383
330
1E
100
AcDbEntity
  8
default
  6
Continuous
 62
     1
100
AcDbLine
 10
-21.64099999999999
 20
37.00199999999999
 30
184.039
 11
-20.83699999999999
 21
24.90699999999999
 31
14.945
  0
LINE
  5
384
330
1E
100
AcDbEntity
  8
default
  6
Continuous
 62
     1
100
AcDbLine
 10
21.64099999999999
 20
37.00199999999999
 30
184.039
 11
63.093
 21
25.228
 31
9.208
  0
LINE
  5
385
330
1E
100
AcDbEntity
  8
default
  6
Continuous
 62
     1
100
AcDbLine
 10
-21.64099999999999
 20
37.00199999999999
 30
184.039
 11
-63.093
 21
25.228
 31
9.208
  0
LINE
  5
386
330
1E
100
AcDbEntity
  8
default
  6
Continuous
 62
    30
100
AcDbLine
 10
20.0
 20
72.964
 30
687.7539999999998
 11
20.139
 21
73.475
 31
640.7569999999999
  0
LINE
  5
387
330
1E
100
AcDbEntity
  8
default
  6
Continuous
 62
    30
100
AcDbLine
 10
-20.0
 20
72.964
 30
687.7539999999998
 11
-20.139
 21
73.475
 31
640.7569999999999
  0
LINE
  5
388
330
1E
100
AcDbEntity
  8
default
  6
Continuous
 62
    30
100
AcDbLine
 10
20.139
 20
73.475
 30
640.7569999999999
 11
21.465
 21
78.37600000000001
 31
190.7859999999999
  0
LINE
  5
389
330
1E
100
AcDbEntity
  8
default
  6
Continuous
 62
    30
100
AcDbLine
 10
-20.139
 20
73.475
 30
640.7569999999999
 11
-21.465
 21
78.37600000000001
 31
190.7859999999999
  0
LINE
  5
38A
330
1E
100
AcDbEntity
  8
default
  6
Continuous
 62
    30
100
AcDbLine
 10
21.465
 20
78.37600000000001
 30
190.7859999999999
 11
20.635
 21
80.24500000000001
 31
20.884
  0
LINE
  5
38B
330
1E
100
AcDbEntity
  8
default
  6
Continuous
 62
    30
100
AcDbLine
 10
-21.465
 20
78.37600000000001
 30
190.7859999999999
 11
-20.635
 21
80.24500000000001
 31
20.884
  0
LINE
  5
38C
330
1E
100
AcDbEntity
  8
default
  6
Continuous
 62
    30
100
AcDbLine
 10
21.465
 20
78.37600000000001
 30
190.7859999999999
 11
62.14
 21
79.68899999999999
 31
18.184
  0
LINE
  5
38D
330
1E
100
AcDbEntity
  8
default
  6
Continuous
 62
    30
100
AcDbLine
 10
-21.465
 20
78.37600000000001
 30
190.7859999999999
 11
-62.14
 21
79.68899999999999
 31
18.184
  0
LINE
  5
38E
330
1E
100
AcDbEntity
  8
default
  6
Continuous
 62
     3
100
AcDbLine
 10
20.0
 20
72.964
 30
687.7539999999998
 11
20.141
 21
78.65000000000001
 31
641.1
  0
LINE
  5
38F
330
1E
100
AcDbEntity
  8
default
  6
Continuous
 62
     3
100
AcDbLine
 10
-20.0
 20
72.964
 30
687.7539999999998
 11
-20.141
 21
78.65000000000001
 31
641.1
  0
LINE
  5
390
330
1E
100
AcDbEntity
  8
default
  6
Continuous
 62
     3
100
AcDbLine
 10
20.141
 20
78.65000000000001
 30
641.1
 11
21.51
 21
133.9409999999999
 31
187.4589999999999
  0
LINE
  5
391
330
1E
100
AcDbEntity
  8
default
  6
Continuous
 62
     3
100
AcDbLine
 10
-20.141
 20
78.65000000000001
 30
641.1
 11
-21.51
 21
133.9409999999999
 31
187.4589999999999
  0
LINE
  5
392
330
1E
100
AcDbEntity
  8
default
  6
Continuous
 62
     3
100
AcDbLine
 10
21.51
 20
133.9409999999999
 30
187.4589999999999
 11
20.704
 21
154.514
 31
18.849
  0
LINE
  5
393
330
1E
100
AcDbEntity
  8
default
  6
Continuous
 62
     3
100
AcDbLine
 10
-21.51
 20
133.9409999999999
 30
187.4589999999999
 11
-20.704
 21
154.514
 31
18.849
  0
LINE
  5
394
330
1E
100
AcDbEntity
  8
default
  6
Continuous
 62
     3
100
AcDbLine
 10
21.51
 20
133.9409999999999
 30
187.4589999999999
 11
61.699
 21
153.405
 31
22.338
  0
LINE
  5
395
330
1E
100
AcDbEntity
  8
default
  6
Continuous
 62
     3
100
AcDbLine
 10
-21.51
 20
133.9409999999999
 30
187.4589999999999
 11
-61.699
 21
153.405
 31
22.338
  0
LINE
  5
396
330
1E
100
AcDbEntity
  8
default
  6
Continuous
 62
     3
100
AcDbLine
 10
21.51
 20
133.9409999999999
 30
187.4589999999999
 11
20.97599999999999
 21
224.414
 31
10.875
  0
LINE
  5
397
330
1E
100
AcDbEntity
  8
default
  6
Continuous
 62
     3
100
AcDbLine
 10
-21.51
 20
133.9409999999999
 30
187.4589999999999
 11
-20.97599999999999
 21
224.414
 31
10.875
  0
LINE
  5
398
330
1E
100
AcDbEntity
  8
default
  6
Continuous
 62
     3
100
AcDbLine
 10
21.51
 20
133.9409999999999
 30
187.4589999999999
 11
61.791
 21
223.164
 31
21.469
  0
LINE
  5
399
330
1E
100
AcDbEntity
  8
default
  6
Continuous
 62
     3
100
AcDbLine
 10
-21.51
 20
133.9409999999999
 30
187.4589999999999
 11
-61.791
 21
223.164
 31
21.469
  0
LINE
  5
39A
330
1E
100
AcDbEntity
  8
default
  6
Continuous
 62
     2
100
AcDbLine
 10
20.141
 20
78.65000000000001
 30
641.1
 11
28.364
 21
159.47
 31
400.441
  0
LINE
  5
39B
330
1E
100
AcDbEntity
  8
default
  6
Continuous
 62
     2
100
AcDbLine
 10
-20.141
 20
78.65000000000001
 30
641.1
 11
-28.364
 21
159.47
 31
400.441
  0
LINE
  5
39C
330
1E
100
AcDbEntity
  8
default
  6
Continuous
 62
     2
100
AcDbLine
 10
28.364
 20
159.47
 30
400.441
 11
38.65899999999999
 21
260.653
 31
99.144
  0
LINE
  5
39D
330
1E
100
AcDbEntity
  8
default
  6
Continuous
 62
     2
100
AcDbLine
 10
-28.364
 20
159.47
 30
400.441
 11
-38.65899999999999
 21
260.653
 31
99.144
  0
LINE
  5
39E
330
1E
100
AcDbEntity
  8
default
  6
Continuous
 62
     2
100
AcDbLine
 10
38.65899999999999
 20
260.653
 30
99.144
 11
21.333
 21
291.4019999999999
 31
0.377
  0
LINE
  5
39F
330
1E
100
AcDbEntity
  8
default
  6
Continuous
 62
     2
100
AcDbLine
 10
-38.65899999999999
 20
260.653
 30
99.144
 11
-21.333
 21
291.4019999999999
 31
0.377
  0
LINE
  5
3A0
330
1E
100
AcDbEntity
  8
default
  6
Continuous
 62
     2
100
AcDbLine
 10
38.65899999999999
 20
260.653
 30
99.144
 11
62.11899999999999
 21
290.194
 31
18.384
  0
LINE
  5
3A1
330
1E
100
AcDbEntity
  8
default
  6
Continuous
 62
     2
100
AcDbLine
 10
-38.65899999999999
 20
260.653
 30
99.144
 11
-62.11899999999999
 21
290.194
 31
18.384
  0
LINE
  5
3A2
330
1E
100
AcDbEntity
  8
default
  6
Continuous
 62
     2
100
AcDbLine
 10
-20.879
 20
19.58
 30
13.71299999999999
 11
21.787
 21
19.58
 31
13.71299999999999
  0
LINE
  5
3A3
330
1E
100
AcDbEntity
  8
default
  6
Continuous
 62
     2
100
AcDbLine
 10
20.879
 20
19.58
 30
13.71299999999999
 11
-21.787
 21
19.58
 31
13.71299999999999
  0
LINE
  5
3A4
330
1E
100
AcDbEntity
  8
default
  6
Continuous
 62
     2
100
AcDbLine
 10
21.787
 20
19.58
 30
13.71299999999999
 11
21.79199999999999
 21
20.112
 31
13.847
  0
LINE
  5
3A5
330
1E
100
AcDbEntity
  8
default
  6
Continuous
 62
     2
100
AcDbLine
 10
-20.879
 20
19.58
 30
13.71299999999999
 11
-20.87499999999999
 21
19.58
 31
13.847
  0
LINE
  5
3A6
330
1E
100
AcDbEntity
  8
default
  6
Continuous
 62
     2
100
AcDbLine
 10
-21.787
 20
19.58
 30
13.71299999999999
 11
-21.79199999999999
 21
20.112
 31
13.847
  0
LINE
  5
3A7
330
1E
100
AcDbEntity
  8
default
  6
Continuous
 62
     2
100
AcDbLine
 10
20.879
 20
19.58
 30
13.71299999999999
 11
20.87499999999999
 21
19.58
 31
13.847
  0
LINE
  5
3A8
330
1E
100
AcDbEntity
  8
default
  6
Continuous
 62
     2
100
AcDbLine
 10
-20.87499999999999
 20
20.112
 30
13.847
 11
21.79199999999999
 21
20.112
 31
13.847
  0
LINE
  5
3A9
330
1E
100
AcDbEntity
  8
default
  6
Continuous
 62
     2
100
AcDbLine
 10
20.87499999999999
 20
20.112
 30
13.847
 11
-21.79199999999999
 21
20.112
 31
13.847
  0
LINE
  5
3AA
330
1E
100
AcDbEntity
  8
default
  6
Continuous
 62
     2
100
AcDbLine
 10
21.79199999999999
 20
20.112
 30
13.847
 11
21.79699999999999
 21
20.645
 31
13.982
  0
LINE
  5
3AB
330
1E
100
AcDbEntity
  8
default
  6
Continuous
 62
     2
100
AcDbLine
 10
-20.87499999999999
 20
20.112
 30
13.847
 11
-20.87
 21
20.112
 31
13.982
  0
LINE
  5
3AC
330
1E
100
AcDbEntity
  8
default
  6
Continuous
 62
     2
100
AcDbLine
 10
-21.79199999999999
 20
20.112
 30
13.847
 11
-21.79699999999999
 21
20.645
 31
13.982
  0
LINE
  5
3AD
330
1E
100
AcDbEntity
  8
default
  6
Continuous
 62
     2
100
AcDbLine
 10
20.87499999999999
 20
20.112
 30
13.847
 11
20.87
 21
20.112
 31
13.982
  0
LINE
  5
3AE
330
1E
100
AcDbEntity
  8
default
  6
Continuous
 62
     2
100
AcDbLine
 10
-20.87
 20
20.645
 30
13.982
 11
21.79699999999999
 21
20.645
 31
13.982
  0
LINE
  5
3AF
330
1E
100
AcDbEntity
  8
default
  6
Continuous
 62
     2
100
AcDbLine
 10
20.87
 20
20.645
 30
13.982
 11
-21.79699999999999
 21
20.645
 31
13.982
  0
LINE
  5
3B0
330
1E
100
AcDbEntity
  8
default
  6
Continuous
 62
     2
100
AcDbLine
 10
21.79699999999999
 20
20.645
 30
13.982
 11
21.80099999999999
 21
21.178
 31
14.109
  0
LINE
  5
3B1
330
1E
100
AcDbEntity
  8
default
  6
Continuous
 62
     2
100
AcDbLine
 10
-20.87
 20
20.645
 30
13.982
 11
-20.866
 21
20.645
 31
14.109
  0
LINE
  5
3B2
330
1E
100
AcDbEntity
  8
default
  6
Continuous
 62
     2
100
AcDbLine
 10
-21.79699999999999
 20
20.645
 30
13.982
 11
-21.80099999999999
 21
21.178
 31
14.109
  0
LINE
  5
3B3
330
1E
100
AcDbEntity
  8
default
  6
Continuous
 62
     2
100
AcDbLine
 10
20.87
 20
20.645
 30
13.982
 11
20.866
 21
20.645
 31
14.109
  0
LINE
  5
3B4
330
1E
100
AcDbEntity
  8
default
  6
Continuous
 62
     2
100
AcDbLine
 10
-20.866
 20
21.178
 30
14.109
 11
21.80099999999999
 21
21.178
 31
14.109
  0
LINE
  5
3B5
330
1E
100
AcDbEntity
  8
default
  6
Continuous
 62
     2
100
AcDbLine
 10
20.866
 20
21.178
 30
14.109
 11
-21.80099999999999
 21
21.178
 31
14.109
  0
LINE
  5
3B6
330
1E
100
AcDbEntity
  8
default
  6
Continuous
 62
     2
100
AcDbLine
 10
21.80099999999999
 20
21.178
 30
14.109
 11
21.80499999999999
 21
21.711
 31
14.23099999999999
  0
LINE
  5
3B7
330
1E
100
AcDbEntity
  8
default
  6
Continuous
 62
     2
100
AcDbLine
 10
-20.866
 20
21.178
 30
14.109
 11
-20.86199999999999
 21
21.178
 31
14.23099999999999
  0
LINE
  5
3B8
330
1E
100
AcDbEntity
  8
default
  6
Continuous
 62
     2
100
AcDbLine
 10
-21.80099999999999
 20
21.178
 30
14.109
 11
-21.80499999999999
 21
21.711
 31
14.23099999999999
  0
LINE
  5
3B9
330
1E
100
AcDbEntity
  8
default
  6
Continuous
 62
     2
100
AcDbLine
 10
20.866
 20
21.178
 30
14.109
 11
20.86199999999999
 21
21.178
 31
14.23099999999999
  0
LINE
  5
3BA
330
1E
100
AcDbEntity
  8
default
  6
Continuous
 62
     2
100
AcDbLine
 10
-20.86199999999999
 20
21.711
 30
14.23099999999999
 11
21.80499999999999
 21
21.711
 31
14.23099999999999
  0
LINE
  5
3BB
330
1E
100
AcDbEntity
  8
default
  6
Continuous
 62
     2
100
AcDbLine
 10
20.86199999999999
 20
21.711
 30
14.23099999999999
 11
-21.80499999999999
 21
21.711
 31
14.23099999999999
  0
LINE
  5
3BC
330
1E
100
AcDbEntity
  8
default
  6
Continuous
 62
     2
100
AcDbLine
 10
21.80499999999999
 20
21.711
 30
14.23099999999999
 11
21.809
 21
22.243
 31
14.35299999999999
  0
LINE
  5
3BD
330
1E
100
AcDbEntity
  8
default
  6
Continuous
 62
     2
100
AcDbLine
 10
-20.86199999999999
 20
21.711
 30
14.23099999999999
 11
-20.857
 21
21.711
 31
14.35299999999999
  0
LINE
  5
3BE
330
1E
100
AcDbEntity
  8
default
  6
Continuous
 62
     2
100
AcDbLine
 10
-21.80499999999999
 20
21.711
 30
14.23099999999999
 11
-21.809
 21
22.243
 31
14.35299999999999
  0
LINE
  5
3BF
330
1E
100
AcDbEntity
  8
default
  6
Continuous
 62
     2
100
AcDbLine
 10
20.86199999999999
 20
21.711
 30
14.23099999999999
 11
20.857
 21
21.711
 31
14.35299999999999
  0
LINE
  5
3C0
330
1E
100
AcDbEntity
  8
default
  6
Continuous
 62
     2
100
AcDbLine
 10
-20.857
 20
22.243
 30
14.35299999999999
 11
21.809
 21
22.243
 31
14.35299999999999
  0
LINE
  5
3C1
330
1E
100
AcDbEntity
  8
default
  6
Continuous
 62
     2
100
AcDbLine
 10
20.857
 20
22.243
 30
14.35299999999999
 11
-21.809
 21
22.243
 31
14.35299999999999
  0
LINE
  5
3C2
330
1E
100
AcDbEntity
  8
default
  6
Continuous
 62
     2
100
AcDbLine
 10
21.809
 20
22.243
 30
14.35299999999999
 11
21.813
 21
22.776
 31
14.47499999999999
  0
LINE
  5
3C3
330
1E
100
AcDbEntity
  8
default
  6
Continuous
 62
     2
100
AcDbLine
 10
-20.857
 20
22.243
 30
14.35299999999999
 11
-20.853
 21
22.243
 31
14.47499999999999
  0
LINE
  5
3C4
330
1E
100
AcDbEntity
  8
default
  6
Continuous
 62
     2
100
AcDbLine
 10
-21.809
 20
22.243
 30
14.35299999999999
 11
-21.813
 21
22.776
 31
14.47499999999999
  0
LINE
  5
3C5
330
1E
100
AcDbEntity
  8
default
  6
Continuous
 62
     2
100
AcDbLine
 10
20.857
 20
22.243
 30
14.35299999999999
 11
20.853
 21
22.243
 31
14.47499999999999
  0
LINE
  5
3C6
330
1E
100
AcDbEntity
  8
default
  6
Continuous
 62
     2
100
AcDbLine
 10
-20.853
 20
22.776
 30
14.47499999999999
 11
21.813
 21
22.776
 31
14.47499999999999
  0
LINE
  5
3C7
330
1E
100
AcDbEntity
  8
default
  6
Continuous
 62
     2
100
AcDbLine
 10
20.853
 20
22.776
 30
14.47499999999999
 11
-21.813
 21
22.776
 31
14.47499999999999
  0
LINE
  5
3C8
330
1E
100
AcDbEntity
  8
default
  6
Continuous
 62
     2
100
AcDbLine
 10
21.813
 20
22.776
 30
14.47499999999999
 11
21.818
 21
23.309
 31
14.597
  0
LINE
  5
3C9
330
1E
100
AcDbEntity
  8
default
  6
Continuous
 62
     2
100
AcDbLine
 10
-20.853
 20
22.776
 30
14.47499999999999
 11
-20.849
 21
22.776
 31
14.597
  0
LINE
  5
3CA
330
1E
100
AcDbEntity
  8
default
  6
Continuous
 62
     2
100
AcDbLine
 10
-21.813
 20
22.776
 30
14.47499999999999
 11
-21.818
 21
23.309
 31
14.597
  0
LINE
  5
3CB
330
1E
100
AcDbEntity
  8
default
  6
Continuous
 62
     2
100
AcDbLine
 10
20.853
 20
22.776
 30
14.47499999999999
 11
20.849
 21
22.776
 31
14.597
  0
LINE
  5
3CC
330
1E
100
AcDbEntity
  8
default
  6
Continuous
 62
     2
100
AcDbLine
 10
-20.849
 20
23.309
 30
14.597
 11
21.818
 21
23.309
 31
14.597
  0
LINE
  5
3CD
330
1E
100
AcDbEntity
  8
default
  6
Continuous
 62
     2
100
AcDbLine
 10
20.849
 20
23.309
 30
14.597
 11
-21.818
 21
23.309
 31
14.597
  0
LINE
  5
3CE
330
1E
100
AcDbEntity
  8
default
  6
Continuous
 62
     2
100
AcDbLine
 10
21.818
 20
23.309
 30
14.597
 11
21.82199999999999
 21
23.84199999999999
 31
14.719
  0
LINE
  5
3CF
330
1E
100
AcDbEntity
  8
default
  6
Continuous
 62
     2
100
AcDbLine
 10
-20.849
 20
23.309
 30
14.597
 11
-20.84499999999999
 21
23.309
 31
14.719
  0
LINE
  5
3D0
330
1E
100
AcDbEntity
  8
default
  6
Continuous
 62
     2
100
AcDbLine
 10
-21.818
 20
23.309
 30
14.597
 11
-21.82199999999999
 21
23.84199999999999
 31
14.719
  0
LINE
  5
3D1
330
1E
100
AcDbEntity
  8
default
  6
Continuous
 62
     2
100
AcDbLine
 10
20.849
 20
23.309
 30
14.597
 11
20.84499999999999
 21
23.309
 31
14.719
  0
LINE
  5
3D2
330
1E
100
AcDbEntity
  8
default
  6
Continuous
 62
     2
100
AcDbLine
 10
-20.84499999999999
 20
23.84199999999999
 30
14.719
 11
21.82199999999999
 21
23.84199999999999
 31
14.719
  0
LINE
  5
3D3
330
1E
100
AcDbEntity
  8
default
  6
Continuous
 62
     2
100
AcDbLine
 10
20.84499999999999
 20
23.84199999999999
 30
14.719
 11
-21.82199999999999
 21
23.84199999999999
 31
14.719
  0
LINE
  5
3D4
330
1E
100
AcDbEntity
  8
default
  6
Continuous
 62
     2
100
AcDbLine
 10
21.82199999999999
 20
23.84199999999999
 30
14.719
 11
21.826
 21
24.374
 31
14.835
  0
LINE
  5
3D5
330
1E
100
AcDbEntity
  8
default
  6
Continuous
 62
     2
100
AcDbLine
 10
-20.84499999999999
 20
23.84199999999999
 30
14.719
 11
-20.84099999999999
 21
23.84199999999999
 31
14.835
  0
LINE
  5
3D6
330
1E
100
AcDbEntity
  8
default
  6
Continuous
 62
     2
100
AcDbLine
 10
-21.82199999999999
 20
23.84199999999999
 30
14.719
 11
-21.826
 21
24.374
 31
14.835
  0
LINE
  5
3D7
330
1E
100
AcDbEntity
  8
default
  6
Continuous
 62
     2
100
AcDbLine
 10
20.84499999999999
 20
23.84199999999999
 30
14.719
 11
20.84099999999999
 21
23.84199999999999
 31
14.835
  0
LINE
  5
3D8
330
1E
100
AcDbEntity
  8
default
  6
Continuous
 62
     2
100
AcDbLine
 10
-20.84099999999999
 20
24.374
 30
14.835
 11
21.826
 21
24.374
 31
14.835
  0
LINE
  5
3D9
330
1E
100
AcDbEntity
  8
default
  6
Continuous
 62
     2
100
AcDbLine
 10
20.84099999999999
 20
24.374
 30
14.835
 11
-21.826
 21
24.374
 31
14.835
  0
LINE
  5
3DA
330
1E
100
AcDbEntity
  8
default
  6
Continuous
 62
     2
100
AcDbLine
 10
21.826
 20
24.374
 30
14.835
 11
21.829
 21
24.90699999999999
 31
14.945
  0
LINE
  5
3DB
330
1E
100
AcDbEntity
  8
default
  6
Continuous
 62
     2
100
AcDbLine
 10
-20.84099999999999
 20
24.374
 30
14.835
 11
-20.83699999999999
 21
24.374
 31
14.945
  0
LINE
  5
3DC
330
1E
100
AcDbEntity
  8
default
  6
Continuous
 62
     2
100
AcDbLine
 10
-21.826
 20
24.374
 30
14.835
 11
-21.829
 21
24.90699999999999
 31
14.945
  0
LINE
  5
3DD
330
1E
100
AcDbEntity
  8
default
  6
Continuous
 62
     2
100
AcDbLine
 10
20.84099999999999
 20
24.374
 30
14.835
 11
20.83699999999999
 21
24.374
 31
14.945
  0
LINE
  5
3DE
330
1E
100
AcDbEntity
  8
default
  6
Continuous
 62
     2
100
AcDbLine
 10
-20.83699999999999
 20
24.90699999999999
 30
14.945
 11
21.829
 21
24.90699999999999
 31
14.945
  0
LINE
  5
3DF
330
1E
100
AcDbEntity
  8
default
  6
Continuous
 62
     2
100
AcDbLine
 10
20.83699999999999
 20
24.90699999999999
 30
14.945
 11
-21.829
 21
24.90699999999999
 31
14.945
  0
LINE
  5
3E0
330
1E
100
AcDbEntity
  8
default
  6
Continuous
 62
     2
100
AcDbLine
 10
21.829
 20
24.90699999999999
 30
14.945
 11
21.833
 21
25.44
 31
15.055
  0
LINE
  5
3E1
330
1E
100
AcDbEntity
  8
default
  6
Continuous
 62
     2
100
AcDbLine
 10
-20.83699999999999
 20
24.90699999999999
 30
14.945
 11
-20.834
 21
24.90699999999999
 31
15.055
  0
LINE
  5
3E2
330
1E
100
AcDbEntity
  8
default
  6
Continuous
 62
     2
100
AcDbLine
 10
-21.829
 20
24.90699999999999
 30
14.945
 11
-21.833
 21
25.44
 31
15.055
  0
LINE
  5
3E3
330
1E
100
AcDbEntity
  8
default
  6
Continuous
 62
     2
100
AcDbLine
 10
20.83699999999999
 20
24.90699999999999
 30
14.945
 11
20.834
 21
24.90699999999999
 31
15.055
  0
LINE
  5
3E4
330
1E
100
AcDbEntity
  8
default
  6
Continuous
 62
     2
100
AcDbLine
 10
-20.834
 20
25.44
 30
15.055
 11
21.833
 21
25.44
 31
15.055
  0
LINE
  5
3E5
330
1E
100
AcDbEntity
  8
default
  6
Continuous
 62
     2
100
AcDbLine
 10
20.834
 20
25.44
 30
15.055
 11
-21.833
 21
25.44
 31
15.055
  0
LINE
  5
3E6
330
1E
100
AcDbEntity
  8
default
  6
Continuous
 62
     2
100
AcDbLine
 10
21.833
 20
25.44
 30
15.055
 11
21.83699999999999
 21
25.973
 31
15.16499999999999
  0
LINE
  5
3E7
330
1E
100
AcDbEntity
  8
default
  6
Continuous
 62
     2
100
AcDbLine
 10
-20.834
 20
25.44
 30
15.055
 11
-20.82999999999999
 21
25.44
 31
15.16499999999999
  0
LINE
  5
3E8
330
1E
100
AcDbEntity
  8
default
  6
Continuous
 62
     2
100
AcDbLine
 10
-21.833
 20
25.44
 30
15.055
 11
-21.83699999999999
 21
25.973
 31
15.16499999999999
  0
LINE
  5
3E9
330
1E
100
AcDbEntity
  8
default
  6
Continuous
 62
     2
100
AcDbLine
 10
20.834
 20
25.44
 30
15.055
 11
20.82999999999999
 21
25.44
 31
15.16499999999999
  0
LINE
  5
3EA
330
1E
100
AcDbEntity
  8
default
  6
Continuous
 62
     2
100
AcDbLine
 10
-20.82999999999999
 20
25.973
 30
15.16499999999999
 11
21.83699999999999
 21
25.973
 31
15.16499999999999
  0
LINE
  5
3EB
330
1E
100
AcDbEntity
  8
default
  6
Continuous
 62
     2
100
AcDbLine
 10
20.82999999999999
 20
25.973
 30
15.16499999999999
 11
-21.83699999999999
 21
25.973
 31
15.16499999999999
  0
LINE
  5
3EC
330
1E
100
AcDbEntity
  8
default
  6
Continuous
 62
     2
100
AcDbLine
 10
21.83699999999999
 20
25.973
 30
15.16499999999999
 11
21.84099999999999
 21
26.505
 31
15.275
  0
LINE
  5
3ED
330
1E
100
AcDbEntity
  8
default
  6
Continuous
 62
     2
100
AcDbLine
 10
-20.82999999999999
 20
25.973
 30
15.16499999999999
 11
-20.826
 21
25.973
 31
15.275
  0
LINE
  5
3EE
330
1E
100
AcDbEntity
  8
default
  6
Continuous
 62
     2
100
AcDbLine
 10
-21.83699999999999
 20
25.973
 30
15.16499999999999
 11
-21.84099999999999
 21
26.505
 31
15.275
  0
LINE
  5
3EF
330
1E
100
AcDbEntity
  8
default
  6
Continuous
 62
     2
100
AcDbLine
 10
20.82999999999999
 20
25.973
 30
15.16499999999999
 11
20.826
 21
25.973
 31
15.275
  0
LINE
  5
3F0
330
1E
100
AcDbEntity
  8
default
  6
Continuous
 62
     2
100
AcDbLine
 10
-20.826
 20
26.505
 30
15.275
 11
21.84099999999999
 21
26.505
 31
15.275
  0
LINE
  5
3F1
330
1E
100
AcDbEntity
  8
default
  6
Continuous
 62
     2
100
AcDbLine
 10
20.826
 20
26.505
 30
15.275
 11
-21.84099999999999
 21
26.505
 31
15.275
  0
LINE
  5
3F2
330
1E
100
AcDbEntity
  8
default
  6
Continuous
 62
     2
100
AcDbLine
 10
21.84099999999999
 20
26.505
 30
15.275
 11
21.844
 21
27.038
 31
15.38499999999999
  0
LINE
  5
3F3
330
1E
100
AcDbEntity
  8
default
  6
Continuous
 62
     2
100
AcDbLine
 10
-20.826
 20
26.505
 30
15.275
 11
-20.82199999999999
 21
26.505
 31
15.38499999999999
  0
LINE
  5
3F4
330
1E
100
AcDbEntity
  8
default
  6
Continuous
 62
     2
100
AcDbLine
 10
-21.84099999999999
 20
26.505
 30
15.275
 11
-21.844
 21
27.038
 31
15.38499999999999
  0
LINE
  5
3F5
330
1E
100
AcDbEntity
  8
default
  6
Continuous
 62
     2
100
AcDbLine
 10
20.826
 20
26.505
 30
15.275
 11
20.82199999999999
 21
26.505
 31
15.38499999999999
  0
LINE
  5
3F6
330
1E
100
AcDbEntity
  8
default
  6
Continuous
 62
     2
100
AcDbLine
 10
-20.82199999999999
 20
27.038
 30
15.38499999999999
 11
21.844
 21
27.038
 31
15.38499999999999
  0
LINE
  5
3F7
330
1E
100
AcDbEntity
  8
default
  6
Continuous
 62
     2
100
AcDbLine
 10
20.82199999999999
 20
27.038
 30
15.38499999999999
 11
-21.844
 21
27.038
 31
15.38499999999999
  0
LINE
  5
3F8
330
1E
100
AcDbEntity
  8
default
  6
Continuous
 62
     2
100
AcDbLine
 10
21.844
 20
27.038
 30
15.38499999999999
 11
21.848
 21
27.57099999999999
 31
15.495
  0
LINE
  5
3F9
330
1E
100
AcDbEntity
  8
default
  6
Continuous
 62
     2
100
AcDbLine
 10
-20.82199999999999
 20
27.038
 30
15.38499999999999
 11
-20.819
 21
27.038
 31
15.495
  0
LINE
  5
3FA
330
1E
100
AcDbEntity
  8
default
  6
Continuous
 62
     2
100
AcDbLine
 10
-21.844
 20
27.038
 30
15.38499999999999
 11
-21.848
 21
27.57099999999999
 31
15.495
  0
LINE
  5
3FB
330
1E
100
AcDbEntity
  8
default
  6
Continuous
 62
     2
100
AcDbLine
 10
20.82199999999999
 20
27.038
 30
15.38499999999999
 11
20.819
 21
27.038
 31
15.495
  0
LINE
  5
3FC
330
1E
100
AcDbEntity
  8
default
  6
Continuous
 62
     2
100
AcDbLine
 10
-20.819
 20
27.57099999999999
 30
15.495
 11
21.848
 21
27.57099999999999
 31
15.495
  0
LINE
  5
3FD
330
1E
100
AcDbEntity
  8
default
  6
Continuous
 62
     2
100
AcDbLine
 10
20.819
 20
27.57099999999999
 30
15.495
 11
-21.848
 21
27.57099999999999
 31
15.495
  0
LINE
  5
3FE
330
1E
100
AcDbEntity
  8
default
  6
Continuous
 62
     2
100
AcDbLine
 10
21.848
 20
27.57099999999999
 30
15.495
 11
21.85199999999999
 21
28.10399999999999
 31
15.599
  0
LINE
  5
3FF
330
1E
100
AcDbEntity
  8
default
  6
Continuous
 62
     2
100
AcDbLine
 10
-20.819
 20
27.57099999999999
 30
15.495
 11
-20.815
 21
27.57099999999999
 31
15.599
  0
LINE
  5
400
330
1E
100
AcDbEntity
  8
default
  6
Continuous
 62
     2
100
AcDbLine
 10
-21.848
 20
27.57099999999999
 30
15.495
 11
-21.85199999999999
 21
28.10399999999999
 31
15.599
  0
LINE
  5
401
330
1E
100
AcDbEntity
  8
default
  6
Continuous
 62
     2
100
AcDbLine
 10
20.819
 20
27.57099999999999
 30
15.495
 11
20.815
 21
27.57099999999999
 31
15.599
  0
LINE
  5
402
330
1E
100
AcDbEntity
  8
default
  6
Continuous
 62
     2
100
AcDbLine
 10
-20.815
 20
28.10399999999999
 30
15.599
 11
21.85199999999999
 21
28.10399999999999
 31
15.599
  0
LINE
  5
403
330
1E
100
AcDbEntity
  8
default
  6
Continuous
 62
     2
100
AcDbLine
 10
20.815
 20
28.10399999999999
 30
15.599
 11
-21.85199999999999
 21
28.10399999999999
 31
15.599
  0
LINE
  5
404
330
1E
100
AcDbEntity
  8
default
  6
Continuous
 62
     2
100
AcDbLine
 10
21.85199999999999
 20
28.10399999999999
 30
15.599
 11
21.855
 21
28.63599999999999
 31
15.698
  0
LINE
  5
405
330
1E
100
AcDbEntity
  8
default
  6
Continuous
 62
     2
100
AcDbLine
 10
-20.815
 20
28.10399999999999
 30
15.599
 11
-20.81199999999999
 21
28.10399999999999
 31
15.698
  0
LINE
  5
406
330
1E
100
AcDbEntity
  8
default
  6
Continuous
 62
     2
100
AcDbLine
 10
-21.85199999999999
 20
28.10399999999999
 30
15.599
 11
-21.855
 21
28.63599999999999
 31
15.698
  0
LINE
  5
407
330
1E
100
AcDbEntity
  8
default
  6
Continuous
 62
     2
100
AcDbLine
 10
20.815
 20
28.10399999999999
 30
15.599
 11
20.81199999999999
 21
28.10399999999999
 31
15.698
  0
LINE
  5
408
330
1E
100
AcDbEntity
  8
default
  6
Continuous
 62
     2
100
AcDbLine
 10
-20.81199999999999
 20
28.63599999999999
 30
15.698
 11
21.855
 21
28.63599999999999
 31
15.698
  0
LINE
  5
409
330
1E
100
AcDbEntity
  8
default
  6
Continuous
 62
     2
100
AcDbLine
 10
20.81199999999999
 20
28.63599999999999
 30
15.698
 11
-21.855
 21
28.63599999999999
 31
15.698
  0
LINE
  5
40A
330
1E
100
AcDbEntity
  8
default
  6
Continuous
 62
     2
100
AcDbLine
 10
21.855
 20
28.63599999999999
 30
15.698
 11
21.85799999999999
 21
29.169
 31
15.796
  0
LINE
  5
40B
330
1E
100
AcDbEntity
  8
default
  6
Continuous
 62
     2
100
AcDbLine
 10
-20.81199999999999
 20
28.63599999999999
 30
15.698
 11
-20.808
 21
28.63599999999999
 31
15.796
  0
LINE
  5
40C
330
1E
100
AcDbEntity
  8
default
  6
Continuous
 62
     2
100
AcDbLine
 10
-21.855
 20
28.63599999999999
 30
15.698
 11
-21.85799999999999
 21
29.169
 31
15.796
  0
LINE
  5
40D
330
1E
100
AcDbEntity
  8
default
  6
Continuous
 62
     2
100
AcDbLine
 10
20.81199999999999
 20
28.63599999999999
 30
15.698
 11
20.808
 21
28.63599999999999
 31
15.796
  0
LINE
  5
40E
330
1E
100
AcDbEntity
  8
default
  6
Continuous
 62
     2
100
AcDbLine
 10
-20.808
 20
29.169
 30
15.796
 11
21.85799999999999
 21
29.169
 31
15.796
  0
LINE
  5
40F
330
1E
100
AcDbEntity
  8
default
  6
Continuous
 62
     2
100
AcDbLine
 10
20.808
 20
29.169
 30
15.796
 11
-21.85799999999999
 21
29.169
 31
15.796
  0
LINE
  5
410
330
1E
100
AcDbEntity
  8
default
  6
Continuous
 62
     2
100
AcDbLine
 10
21.85799999999999
 20
29.169
 30
15.796
 11
21.86199999999999
 21
29.702
 31
15.895
  0
LINE
  5
411
330
1E
100
AcDbEntity
  8
default
  6
Continuous
 62
     2
100
AcDbLine
 10
-20.808
 20
29.169
 30
15.796
 11
-20.805
 21
29.169
 31
15.895
  0
LINE
  5
412
330
1E
100
AcDbEntity
  8
default
  6
Continuous
 62
     2
100
AcDbLine
 10
-21.85799999999999
 20
29.169
 30
15.796
 11
-21.86199999999999
 21
29.702
 31
15.895
  0
LINE
  5
413
330
1E
100
AcDbEntity
  8
default
  6
Continuous
 62
     2
100
AcDbLine
 10
20.808
 20
29.169
 30
15.796
 11
20.805
 21
29.169
 31
15.895
  0
LINE
  5
414
330
1E
100
AcDbEntity
  8
default
  6
Continuous
 62
     2
100
AcDbLine
 10
-20.805
 20
29.702
 30
15.895
 11
21.86199999999999
 21
29.702
 31
15.895
  0
LINE
  5
415
330
1E
100
AcDbEntity
  8
default
  6
Continuous
 62
     2
100
AcDbLine
 10
20.805
 20
29.702
 30
15.895
 11
-21.86199999999999
 21
29.702
 31
15.895
  0
LINE
  5
416
330
1E
100
AcDbEntity
  8
default
  6
Continuous
 62
     2
100
AcDbLine
 10
21.86199999999999
 20
29.702
 30
15.895
 11
21.865
 21
30.235
 31
15.993
  0
LINE
  5
417
330
1E
100
AcDbEntity
  8
default
  6
Continuous
 62
     2
100
AcDbLine
 10
-20.805
 20
29.702
 30
15.895
 11
-20.802
 21
29.702
 31
15.993
  0
LINE
  5
418
330
1E
100
AcDbEntity
  8
default
  6
Continuous
 62
     2
100
AcDbLine
 10
-21.86199999999999
 20
29.702
 30
15.895
 11
-21.865
 21
30.235
 31
15.993
  0
LINE
  5
419
330
1E
100
AcDbEntity
  8
default
  6
Continuous
 62
     2
100
AcDbLine
 10
20.805
 20
29.702
 30
15.895
 11
20.802
 21
29.702
 31
15.993
  0
LINE
  5
41A
330
1E
100
AcDbEntity
  8
default
  6
Continuous
 62
     2
100
AcDbLine
 10
-20.802
 20
30.235
 30
15.993
 11
21.865
 21
30.235
 31
15.993
  0
LINE
  5
41B
330
1E
100
AcDbEntity
  8
default
  6
Continuous
 62
     2
100
AcDbLine
 10
20.802
 20
30.235
 30
15.993
 11
-21.865
 21
30.235
 31
15.993
  0
LINE
  5
41C
330
1E
100
AcDbEntity
  8
default
  6
Continuous
 62
     2
100
AcDbLine
 10
-20.643
 20
74.917
 30
20.65199999999999
 11
22.024
 21
74.917
 31
20.65199999999999
  0
LINE
  5
41D
330
1E
100
AcDbEntity
  8
default
  6
Continuous
 62
     2
100
AcDbLine
 10
20.643
 20
74.917
 30
20.65199999999999
 11
-22.024
 21
74.917
 31
20.65199999999999
  0
LINE
  5
41E
330
1E
100
AcDbEntity
  8
default
  6
Continuous
 62
     2
100
AcDbLine
 10
22.024
 20
74.917
 30
20.65199999999999
 11
22.024
 21
75.45
 31
20.676
  0
LINE
  5
41F
330
1E
100
AcDbEntity
  8
default
  6
Continuous
 62
     2
100
AcDbLine
 10
-20.643
 20
74.917
 30
20.65199999999999
 11
-20.642
 21
74.917
 31
20.676
  0
LINE
  5
420
330
1E
100
AcDbEntity
  8
default
  6
Continuous
 62
     2
100
AcDbLine
 10
-22.024
 20
74.917
 30
20.65199999999999
 11
-22.024
 21
75.45
 31
20.676
  0
LINE
  5
421
330
1E
100
AcDbEntity
  8
default
  6
Continuous
 62
     2
100
AcDbLine
 10
20.643
 20
74.917
 30
20.65199999999999
 11
20.642
 21
74.917
 31
20.676
  0
LINE
  5
422
330
1E
100
AcDbEntity
  8
default
  6
Continuous
 62
     2
100
AcDbLine
 10
-20.642
 20
75.45
 30
20.676
 11
22.024
 21
75.45
 31
20.676
  0
LINE
  5
423
330
1E
100
AcDbEntity
  8
default
  6
Continuous
 62
     2
100
AcDbLine
 10
20.642
 20
75.45
 30
20.676
 11
-22.024
 21
75.45
 31
20.676
  0
LINE
  5
424
330
1E
100
AcDbEntity
  8
default
  6
Continuous
 62
     2
100
AcDbLine
 10
22.024
 20
75.45
 30
20.676
 11
22.025
 21
75.983
 31
20.701
  0
LINE
  5
425
330
1E
100
AcDbEntity
  8
default
  6
Continuous
 62
     2
100
AcDbLine
 10
-20.642
 20
75.45
 30
20.676
 11
-20.64099999999999
 21
75.45
 31
20.701
  0
LINE
  5
426
330
1E
100
AcDbEntity
  8
default
  6
Continuous
 62
     2
100
AcDbLine
 10
-22.024
 20
75.45
 30
20.676
 11
-22.025
 21
75.983
 31
20.701
  0
LINE
  5
427
330
1E
100
AcDbEntity
  8
default
  6
Continuous
 62
     2
100
AcDbLine
 10
20.642
 20
75.45
 30
20.676
 11
20.64099999999999
 21
75.45
 31
20.701
  0
LINE
  5
428
330
1E
100
AcDbEntity
  8
default
  6
Continuous
 62
     2
100
AcDbLine
 10
-20.64099999999999
 20
75.983
 30
20.701
 11
22.025
 21
75.983
 31
20.701
  0
LINE
  5
429
330
1E
100
AcDbEntity
  8
default
  6
Continuous
 62
     2
100
AcDbLine
 10
20.64099999999999
 20
75.983
 30
20.701
 11
-22.025
 21
75.983
 31
20.701
  0
LINE
  5
42A
330
1E
100
AcDbEntity
  8
default
  6
Continuous
 62
     2
100
AcDbLine
 10
22.025
 20
75.983
 30
20.701
 11
22.02599999999999
 21
76.51600000000001
 31
20.72599999999999
  0
LINE
  5
42B
330
1E
100
AcDbEntity
  8
default
  6
Continuous
 62
     2
100
AcDbLine
 10
-20.64099999999999
 20
75.983
 30
20.701
 11
-20.64099999999999
 21
75.983
 31
20.72599999999999
  0
LINE
  5
42C
330
1E
100
AcDbEntity
  8
default
  6
Continuous
 62
     2
100
AcDbLine
 10
-22.025
 20
75.983
 30
20.701
 11
-22.02599999999999
 21
76.51600000000001
 31
20.72599999999999
  0
LINE
  5
42D
330
1E
100
AcDbEntity
  8
default
  6
Continuous
 62
     2
100
AcDbLine
 10
20.64099999999999
 20
75.983
 30
20.701
 11
20.64099999999999
 21
75.983
 31
20.72599999999999
  0
LINE
  5
42E
330
1E
100
AcDbEntity
  8
default
  6
Continuous
 62
     2
100
AcDbLine
 10
-20.64099999999999
 20
76.51600000000001
 30
20.72599999999999
 11
22.02599999999999
 21
76.51600000000001
 31
20.72599999999999
  0
LINE
  5
42F
330
1E
100
AcDbEntity
  8
default
  6
Continuous
 62
     2
100
AcDbLine
 10
20.64099999999999
 20
76.51600000000001
 30
20.72599999999999
 11
-22.02599999999999
 21
76.51600000000001
 31
20.72599999999999
  0
LINE
  5
430
330
1E
100
AcDbEntity
  8
default
  6
Continuous
 62
     2
100
AcDbLine
 10
22.02599999999999
 20
76.51600000000001
 30
20.72599999999999
 11
22.02699999999999
 21
77.048
 31
20.75
  0
LINE
  5
431
330
1E
100
AcDbEntity
  8
default
  6
Continuous
 62
     2
100
AcDbLine
 10
-20.64099999999999
 20
76.51600000000001
 30
20.72599999999999
 11
-20.64
 21
76.51600000000001
 31
20.75
  0
LINE
  5
432
330
1E
100
AcDbEntity
  8
default
  6
Continuous
 62
     2
100
AcDbLine
 10
-22.02599999999999
 20
76.51600000000001
 30
20.72599999999999
 11
-22.02699999999999
 21
77.048
 31
20.75
  0
LINE
  5
433
330
1E
100
AcDbEntity
  8
default
  6
Continuous
 62
     2
100
AcDbLine
 10
20.64099999999999
 20
76.51600000000001
 30
20.72599999999999
 11
20.64
 21
76.51600000000001
 31
20.75
  0
LINE
  5
434
330
1E
100
AcDbEntity
  8
default
  6
Continuous
 62
     2
100
AcDbLine
 10
-20.64
 20
77.048
 30
20.75
 11
22.02699999999999
 21
77.048
 31
20.75
  0
LINE
  5
435
330
1E
100
AcDbEntity
  8
default
  6
Continuous
 62
     2
100
AcDbLine
 10
20.64
 20
77.048
 30
20.75
 11
-22.02699999999999
 21
77.048
 31
20.75
  0
LINE
  5
436
330
1E
100
AcDbEntity
  8
default
  6
Continuous
 62
     2
100
AcDbLine
 10
22.02699999999999
 20
77.048
 30
20.75
 11
22.028
 21
77.581
 31
20.775
  0
LINE
  5
437
330
1E
100
AcDbEntity
  8
default
  6
Continuous
 62
     2
100
AcDbLine
 10
-20.64
 20
77.048
 30
20.75
 11
-20.63899999999999
 21
77.048
 31
20.775
  0
LINE
  5
438
330
1E
100
AcDbEntity
  8
default
  6
Continuous
 62
     2
100
AcDbLine
 10
-22.02699999999999
 20
77.048
 30
20.75
 11
-22.028
 21
77.581
 31
20.775
  0
LINE
  5
439
330
1E
100
AcDbEntity
  8
default
  6
Continuous
 62
     2
100
AcDbLine
 10
20.64
 20
77.048
 30
20.75
 11
20.63899999999999
 21
77.048
 31
20.775
  0
LINE
  5
43A
330
1E
100
AcDbEntity
  8
default
  6
Continuous
 62
     2
100
AcDbLine
 10
-20.63899999999999
 20
77.581
 30
20.775
 11
22.028
 21
77.581
 31
20.775
  0
LINE
  5
43B
330
1E
100
AcDbEntity
  8
default
  6
Continuous
 62
     2
100
AcDbLine
 10
20.63899999999999
 20
77.581
 30
20.775
 11
-22.028
 21
77.581
 31
20.775
  0
LINE
  5
43C
330
1E
100
AcDbEntity
  8
default
  6
Continuous
 62
     2
100
AcDbLine
 10
22.028
 20
77.581
 30
20.775
 11
22.029
 21
78.11399999999999
 31
20.8
  0
LINE
  5
43D
330
1E
100
AcDbEntity
  8
default
  6
Continuous
 62
     2
100
AcDbLine
 10
-20.63899999999999
 20
77.581
 30
20.775
 11
-20.638
 21
77.581
 31
20.8
  0
LINE
  5
43E
330
1E
100
AcDbEntity
  8
default
  6
Continuous
 62
     2
100
AcDbLine
 10
-22.028
 20
77.581
 30
20.775
 11
-22.029
 21
78.11399999999999
 31
20.8
  0
LINE
  5
43F
330
1E
100
AcDbEntity
  8
default
  6
Continuous
 62
     2
100
AcDbLine
 10
20.63899999999999
 20
77.581
 30
20.775
 11
20.638
 21
77.581
 31
20.8
  0
LINE
  5
440
330
1E
100
AcDbEntity
  8
default
  6
Continuous
 62
     2
100
AcDbLine
 10
-20.638
 20
78.11399999999999
 30
20.8
 11
22.029
 21
78.11399999999999
 31
20.8
  0
LINE
  5
441
330
1E
100
AcDbEntity
  8
default
  6
Continuous
 62
     2
100
AcDbLine
 10
20.638
 20
78.11399999999999
 30
20.8
 11
-22.029
 21
78.11399999999999
 31
20.8
  0
LINE
  5
442
330
1E
100
AcDbEntity
  8
default
  6
Continuous
 62
     2
100
AcDbLine
 10
22.029
 20
78.11399999999999
 30
20.8
 11
22.03
 21
78.64699999999999
 31
20.824
  0
LINE
  5
443
330
1E
100
AcDbEntity
  8
default
  6
Continuous
 62
     2
100
AcDbLine
 10
-20.638
 20
78.11399999999999
 30
20.8
 11
-20.63699999999999
 21
78.11399999999999
 31
20.824
  0
LINE
  5
444
330
1E
100
AcDbEntity
  8
default
  6
Continuous
 62
     2
100
AcDbLine
 10
-22.029
 20
78.11399999999999
 30
20.8
 11
-22.03
 21
78.64699999999999
 31
20.824
  0
LINE
  5
445
330
1E
100
AcDbEntity
  8
default
  6
Continuous
 62
     2
100
AcDbLine
 10
20.638
 20
78.11399999999999
 30
20.8
 11
20.63699999999999
 21
78.11399999999999
 31
20.824
  0
LINE
  5
446
330
1E
100
AcDbEntity
  8
default
  6
Continuous
 62
     2
100
AcDbLine
 10
-20.63699999999999
 20
78.64699999999999
 30
20.824
 11
22.03
 21
78.64699999999999
 31
20.824
  0
LINE
  5
447
330
1E
100
AcDbEntity
  8
default
  6
Continuous
 62
     2
100
AcDbLine
 10
20.63699999999999
 20
78.64699999999999
 30
20.824
 11
-22.03
 21
78.64699999999999
 31
20.824
  0
LINE
  5
448
330
1E
100
AcDbEntity
  8
default
  6
Continuous
 62
     2
100
AcDbLine
 10
22.03
 20
78.64699999999999
 30
20.824
 11
22.03
 21
79.179
 31
20.849
  0
LINE
  5
449
330
1E
100
AcDbEntity
  8
default
  6
Continuous
 62
     2
100
AcDbLine
 10
-20.63699999999999
 20
78.64699999999999
 30
20.824
 11
-20.636
 21
78.64699999999999
 31
20.849
  0
LINE
  5
44A
330
1E
100
AcDbEntity
  8
default
  6
Continuous
 62
     2
100
AcDbLine
 10
-22.03
 20
78.64699999999999
 30
20.824
 11
-22.03
 21
79.179
 31
20.849
  0
LINE
  5
44B
330
1E
100
AcDbEntity
  8
default
  6
Continuous
 62
     2
100
AcDbLine
 10
20.63699999999999
 20
78.64699999999999
 30
20.824
 11
20.636
 21
78.64699999999999
 31
20.849
  0
LINE
  5
44C
330
1E
100
AcDbEntity
  8
default
  6
Continuous
 62
     2
100
AcDbLine
 10
-20.636
 20
79.179
 30
20.849
 11
22.03
 21
79.179
 31
20.849
  0
LINE
  5
44D
330
1E
100
AcDbEntity
  8
default
  6
Continuous
 62
     2
100
AcDbLine
 10
20.636
 20
79.179
 30
20.849
 11
-22.03
 21
79.179
 31
20.849
  0
LINE
  5
44E
330
1E
100
AcDbEntity
  8
default
  6
Continuous
 62
     2
100
AcDbLine
 10
22.03
 20
79.179
 30
20.849
 11
22.031
 21
79.712
 31
20.86699999999999
  0
LINE
  5
44F
330
1E
100
AcDbEntity
  8
default
  6
Continuous
 62
     2
100
AcDbLine
 10
-20.636
 20
79.179
 30
20.849
 11
-20.636
 21
79.179
 31
20.86699999999999
  0
LINE
  5
450
330
1E
100
AcDbEntity
  8
default
  6
Continuous
 62
     2
100
AcDbLine
 10
-22.03
 20
79.179
 30
20.849
 11
-22.031
 21
79.712
 31
20.86699999999999
  0
LINE
  5
451
330
1E
100
AcDbEntity
  8
default
  6
Continuous
 62
     2
100
AcDbLine
 10
20.636
 20
79.179
 30
20.849
 11
20.636
 21
79.179
 31
20.86699999999999
  0
LINE
  5
452
330
1E
100
AcDbEntity
  8
default
  6
Continuous
 62
     2
100
AcDbLine
 10
-20.636
 20
79.712
 30
20.86699999999999
 11
22.031
 21
79.712
 31
20.86699999999999
  0
LINE
  5
453
330
1E
100
AcDbEntity
  8
default
  6
Continuous
 62
     2
100
AcDbLine
 10
20.636
 20
79.712
 30
20.86699999999999
 11
-22.031
 21
79.712
 31
20.86699999999999
  0
LINE
  5
454
330
1E
100
AcDbEntity
  8
default
  6
Continuous
 62
     2
100
AcDbLine
 10
22.031
 20
79.712
 30
20.86699999999999
 11
22.03199999999999
 21
80.24500000000001
 31
20.884
  0
LINE
  5
455
330
1E
100
AcDbEntity
  8
default
  6
Continuous
 62
     2
100
AcDbLine
 10
-20.636
 20
79.712
 30
20.86699999999999
 11
-20.635
 21
79.712
 31
20.884
  0
LINE
  5
456
330
1E
100
AcDbEntity
  8
default
  6
Continuous
 62
     2
100
AcDbLine
 10
-22.031
 20
79.712
 30
20.86699999999999
 11
-22.03199999999999
 21
80.24500000000001
 31
20.884
  0
LINE
  5
457
330
1E
100
AcDbEntity
  8
default
  6
Continuous
 62
     2
100
AcDbLine
 10
20.636
 20
79.712
 30
20.86699999999999
 11
20.635
 21
79.712
 31
20.884
  0
LINE
  5
458
330
1E
100
AcDbEntity
  8
default
  6
Continuous
 62
     2
100
AcDbLine
 10
-20.635
 20
80.24500000000001
 30
20.884
 11
22.03199999999999
 21
80.24500000000001
 31
20.884
  0
LINE
  5
459
330
1E
100
AcDbEntity
  8
default
  6
Continuous
 62
     2
100
AcDbLine
 10
20.635
 20
80.24500000000001
 30
20.884
 11
-22.03199999999999
 21
80.24500000000001
 31
20.884
  0
LINE
  5
45A
330
1E
100
AcDbEntity
  8
default
  6
Continuous
 62
     2
100
AcDbLine
 10
22.03199999999999
 20
80.24500000000001
 30
20.884
 11
22.03199999999999
 21
80.77800000000001
 31
20.901
  0
LINE
  5
45B
330
1E
100
AcDbEntity
  8
default
  6
Continuous
 62
     2
100
AcDbLine
 10
-20.635
 20
80.24500000000001
 30
20.884
 11
-20.635
 21
80.24500000000001
 31
20.901
  0
LINE
  5
45C
330
1E
100
AcDbEntity
  8
default
  6
Continuous
 62
     2
100
AcDbLine
 10
-22.03199999999999
 20
80.24500000000001
 30
20.884
 11
-22.03199999999999
 21
80.77800000000001
 31
20.901
  0
LINE
  5
45D
330
1E
100
AcDbEntity
  8
default
  6
Continuous
 62
     2
100
AcDbLine
 10
20.635
 20
80.24500000000001
 30
20.884
 11
20.635
 21
80.24500000000001
 31
20.901
  0
LINE
  5
45E
330
1E
100
AcDbEntity
  8
default
  6
Continuous
 62
     2
100
AcDbLine
 10
-20.635
 20
80.77800000000001
 30
20.901
 11
22.03199999999999
 21
80.77800000000001
 31
20.901
  0
LINE
  5
45F
330
1E
100
AcDbEntity
  8
default
  6
Continuous
 62
     2
100
AcDbLine
 10
20.635
 20
80.77800000000001
 30
20.901
 11
-22.03199999999999
 21
80.77800000000001
 31
20.901
  0
LINE
  5
460
330
1E
100
AcDbEntity
  8
default
  6
Continuous
 62
     2
100
AcDbLine
 10
22.03199999999999
 20
80.77800000000001
 30
20.901
 11
22.033
 21
81.31
 31
20.91699999999999
  0
LINE
  5
461
330
1E
100
AcDbEntity
  8
default
  6
Continuous
 62
     2
100
AcDbLine
 10
-20.635
 20
80.77800000000001
 30
20.901
 11
-20.634
 21
80.77800000000001
 31
20.91699999999999
  0
LINE
  5
462
330
1E
100
AcDbEntity
  8
default
  6
Continuous
 62
     2
100
AcDbLine
 10
-22.03199999999999
 20
80.77800000000001
 30
20.901
 11
-22.033
 21
81.31
 31
20.91699999999999
  0
LINE
  5
463
330
1E
100
AcDbEntity
  8
default
  6
Continuous
 62
     2
100
AcDbLine
 10
20.635
 20
80.77800000000001
 30
20.901
 11
20.634
 21
80.77800000000001
 31
20.91699999999999
  0
LINE
  5
464
330
1E
100
AcDbEntity
  8
default
  6
Continuous
 62
     2
100
AcDbLine
 10
-20.634
 20
81.31
 30
20.91699999999999
 11
22.033
 21
81.31
 31
20.91699999999999
  0
LINE
  5
465
330
1E
100
AcDbEntity
  8
default
  6
Continuous
 62
     2
100
AcDbLine
 10
20.634
 20
81.31
 30
20.91699999999999
 11
-22.033
 21
81.31
 31
20.91699999999999
  0
LINE
  5
466
330
1E
100
AcDbEntity
  8
default
  6
Continuous
 62
     2
100
AcDbLine
 10
22.033
 20
81.31
 30
20.91699999999999
 11
22.033
 21
81.843
 31
20.934
  0
LINE
  5
467
330
1E
100
AcDbEntity
  8
default
  6
Continuous
 62
     2
100
AcDbLine
 10
-20.634
 20
81.31
 30
20.91699999999999
 11
-20.633
 21
81.31
 31
20.934
  0
LINE
  5
468
330
1E
100
AcDbEntity
  8
default
  6
Continuous
 62
     2
100
AcDbLine
 10
-22.033
 20
81.31
 30
20.91699999999999
 11
-22.033
 21
81.843
 31
20.934
  0
LINE
  5
469
330
1E
100
AcDbEntity
  8
default
  6
Continuous
 62
     2
100
AcDbLine
 10
20.634
 20
81.31
 30
20.91699999999999
 11
20.633
 21
81.31
 31
20.934
  0
LINE
  5
46A
330
1E
100
AcDbEntity
  8
default
  6
Continuous
 62
     2
100
AcDbLine
 10
-20.633
 20
81.843
 30
20.934
 11
22.033
 21
81.843
 31
20.934
  0
LINE
  5
46B
330
1E
100
AcDbEntity
  8
default
  6
Continuous
 62
     2
100
AcDbLine
 10
20.633
 20
81.843
 30
20.934
 11
-22.033
 21
81.843
 31
20.934
  0
LINE
  5
46C
330
1E
100
AcDbEntity
  8
default
  6
Continuous
 62
     2
100
AcDbLine
 10
22.033
 20
81.843
 30
20.934
 11
22.034
 21
82.376
 31
20.95099999999999
  0
LINE
  5
46D
330
1E
100
AcDbEntity
  8
default
  6
Continuous
 62
     2
100
AcDbLine
 10
-20.633
 20
81.843
 30
20.934
 11
-20.633
 21
81.843
 31
20.95099999999999
  0
LINE
  5
46E
330
1E
100
AcDbEntity
  8
default
  6
Continuous
 62
     2
100
AcDbLine
 10
-22.033
 20
81.843
 30
20.934
 11
-22.034
 21
82.376
 31
20.95099999999999
  0
LINE
  5
46F
330
1E
100
AcDbEntity
  8
default
  6
Continuous
 62
     2
100
AcDbLine
 10
20.633
 20
81.843
 30
20.934
 11
20.633
 21
81.843
 31
20.95099999999999
  0
LINE
  5
470
330
1E
100
AcDbEntity
  8
default
  6
Continuous
 62
     2
100
AcDbLine
 10
-20.633
 20
82.376
 30
20.95099999999999
 11
22.034
 21
82.376
 31
20.95099999999999
  0
LINE
  5
471
330
1E
100
AcDbEntity
  8
default
  6
Continuous
 62
     2
100
AcDbLine
 10
20.633
 20
82.376
 30
20.95099999999999
 11
-22.034
 21
82.376
 31
20.95099999999999
  0
LINE
  5
472
330
1E
100
AcDbEntity
  8
default
  6
Continuous
 62
     2
100
AcDbLine
 10
22.034
 20
82.376
 30
20.95099999999999
 11
22.034
 21
82.90899999999998
 31
20.968
  0
LINE
  5
473
330
1E
100
AcDbEntity
  8
default
  6
Continuous
 62
     2
100
AcDbLine
 10
-20.633
 20
82.376
 30
20.95099999999999
 11
-20.63199999999999
 21
82.376
 31
20.968
  0
LINE
  5
474
330
1E
100
AcDbEntity
  8
default
  6
Continuous
 62
     2
100
AcDbLine
 10
-22.034
 20
82.376
 30
20.95099999999999
 11
-22.034
 21
82.90899999999998
 31
20.968
  0
LINE
  5
475
330
1E
100
AcDbEntity
  8
default
  6
Continuous
 62
     2
100
AcDbLine
 10
20.633
 20
82.376
 30
20.95099999999999
 11
20.63199999999999
 21
82.376
 31
20.968
  0
LINE
  5
476
330
1E
100
AcDbEntity
  8
default
  6
Continuous
 62
     2
100
AcDbLine
 10
-20.63199999999999
 20
82.90899999999998
 30
20.968
 11
22.034
 21
82.90899999999998
 31
20.968
  0
LINE
  5
477
330
1E
100
AcDbEntity
  8
default
  6
Continuous
 62
     2
100
AcDbLine
 10
20.63199999999999
 20
82.90899999999998
 30
20.968
 11
-22.034
 21
82.90899999999998
 31
20.968
  0
LINE
  5
478
330
1E
100
AcDbEntity
  8
default
  6
Continuous
 62
     2
100
AcDbLine
 10
22.034
 20
82.90899999999998
 30
20.968
 11
22.035
 21
83.441
 31
20.985
  0
LINE
  5
479
330
1E
100
AcDbEntity
  8
default
  6
Continuous
 62
     2
100
AcDbLine
 10
-20.63199999999999
 20
82.90899999999998
 30
20.968
 11
-20.63199999999999
 21
82.90899999999998
 31
20.985
  0
LINE
  5
47A
330
1E
100
AcDbEntity
  8
default
  6
Continuous
 62
     2
100
AcDbLine
 10
-22.034
 20
82.90899999999998
 30
20.968
 11
-22.035
 21
83.441
 31
20.985
  0
LINE
  5
47B
330
1E
100
AcDbEntity
  8
default
  6
Continuous
 62
     2
100
AcDbLine
 10
20.63199999999999
 20
82.90899999999998
 30
20.968
 11
20.63199999999999
 21
82.90899999999998
 31
20.985
  0
LINE
  5
47C
330
1E
100
AcDbEntity
  8
default
  6
Continuous
 62
     2
100
AcDbLine
 10
-20.63199999999999
 20
83.441
 30
20.985
 11
22.035
 21
83.441
 31
20.985
  0
LINE
  5
47D
330
1E
100
AcDbEntity
  8
default
  6
Continuous
 62
     2
100
AcDbLine
 10
20.63199999999999
 20
83.441
 30
20.985
 11
-22.035
 21
83.441
 31
20.985
  0
LINE
  5
47E
330
1E
100
AcDbEntity
  8
default
  6
Continuous
 62
     2
100
AcDbLine
 10
22.035
 20
83.441
 30
20.985
 11
22.03599999999999
 21
83.97399999999999
 31
21.002
  0
LINE
  5
47F
330
1E
100
AcDbEntity
  8
default
  6
Continuous
 62
     2
100
AcDbLine
 10
-20.63199999999999
 20
83.441
 30
20.985
 11
-20.63099999999999
 21
83.441
 31
21.002
  0
LINE
  5
480
330
1E
100
AcDbEntity
  8
default
  6
Continuous
 62
     2
100
AcDbLine
 10
-22.035
 20
83.441
 30
20.985
 11
-22.03599999999999
 21
83.97399999999999
 31
21.002
  0
LINE
  5
481
330
1E
100
AcDbEntity
  8
default
  6
Continuous
 62
     2
100
AcDbLine
 10
20.63199999999999
 20
83.441
 30
20.985
 11
20.63099999999999
 21
83.441
 31
21.002
  0
LINE
  5
482
330
1E
100
AcDbEntity
  8
default
  6
Continuous
 62
     2
100
AcDbLine
 10
-20.63099999999999
 20
83.97399999999999
 30
21.002
 11
22.03599999999999
 21
83.97399999999999
 31
21.002
  0
LINE
  5
483
330
1E
100
AcDbEntity
  8
default
  6
Continuous
 62
     2
100
AcDbLine
 10
20.63099999999999
 20
83.97399999999999
 30
21.002
 11
-22.03599999999999
 21
83.97399999999999
 31
21.002
  0
LINE
  5
484
330
1E
100
AcDbEntity
  8
default
  6
Continuous
 62
     2
100
AcDbLine
 10
22.03599999999999
 20
83.97399999999999
 30
21.002
 11
22.03599999999999
 21
84.50700000000001
 31
21.018
  0
LINE
  5
485
330
1E
100
AcDbEntity
  8
default
  6
Continuous
 62
     2
100
AcDbLine
 10
-20.63099999999999
 20
83.97399999999999
 30
21.002
 11
-20.63099999999999
 21
83.97399999999999
 31
21.018
  0
LINE
  5
486
330
1E
100
AcDbEntity
  8
default
  6
Continuous
 62
     2
100
AcDbLine
 10
-22.03599999999999
 20
83.97399999999999
 30
21.002
 11
-22.03599999999999
 21
84.50700000000001
 31
21.018
  0
LINE
  5
487
330
1E
100
AcDbEntity
  8
default
  6
Continuous
 62
     2
100
AcDbLine
 10
20.63099999999999
 20
83.97399999999999
 30
21.002
 11
20.63099999999999
 21
83.97399999999999
 31
21.018
  0
LINE
  5
488
330
1E
100
AcDbEntity
  8
default
  6
Continuous
 62
     2
100
AcDbLine
 10
-20.63099999999999
 20
84.50700000000001
 30
21.018
 11
22.03599999999999
 21
84.50700000000001
 31
21.018
  0
LINE
  5
489
330
1E
100
AcDbEntity
  8
default
  6
Continuous
 62
     2
100
AcDbLine
 10
20.63099999999999
 20
84.50700000000001
 30
21.018
 11
-22.03599999999999
 21
84.50700000000001
 31
21.018
  0
LINE
  5
48A
330
1E
100
AcDbEntity
  8
default
  6
Continuous
 62
     2
100
AcDbLine
 10
22.03599999999999
 20
84.50700000000001
 30
21.018
 11
22.03699999999999
 21
85.03899999999999
 31
21.03499999999999
  0
LINE
  5
48B
330
1E
100
AcDbEntity
  8
default
  6
Continuous
 62
     2
100
AcDbLine
 10
-20.63099999999999
 20
84.50700000000001
 30
21.018
 11
-20.63
 21
84.50700000000001
 31
21.03499999999999
  0
LINE
  5
48C
330
1E
100
AcDbEntity
  8
default
  6
Continuous
 62
     2
100
AcDbLine
 10
-22.03599999999999
 20
84.50700000000001
 30
21.018
 11
-22.03699999999999
 21
85.03899999999999
 31
21.03499999999999
  0
LINE
  5
48D
330
1E
100
AcDbEntity
  8
default
  6
Continuous
 62
     2
100
AcDbLine
 10
20.63099999999999
 20
84.50700000000001
 30
21.018
 11
20.63
 21
84.50700000000001
 31
21.03499999999999
  0
LINE
  5
48E
330
1E
100
AcDbEntity
  8
default
  6
Continuous
 62
     2
100
AcDbLine
 10
-20.63
 20
85.03899999999999
 30
21.03499999999999
 11
22.03699999999999
 21
85.03899999999999
 31
21.03499999999999
  0
LINE
  5
48F
330
1E
100
AcDbEntity
  8
default
  6
Continuous
 62
     2
100
AcDbLine
 10
20.63
 20
85.03899999999999
 30
21.03499999999999
 11
-22.03699999999999
 21
85.03899999999999
 31
21.03499999999999
  0
LINE
  5
490
330
1E
100
AcDbEntity
  8
default
  6
Continuous
 62
     2
100
AcDbLine
 10
22.03699999999999
 20
85.03899999999999
 30
21.03499999999999
 11
22.03699999999999
 21
85.57199999999999
 31
21.05199999999999
  0
LINE
  5
491
330
1E
100
AcDbEntity
  8
default
  6
Continuous
 62
     2
100
AcDbLine
 10
-20.63
 20
85.03899999999999
 30
21.03499999999999
 11
-20.629
 21
85.03899999999999
 31
21.05199999999999
  0
LINE
  5
492
330
1E
100
AcDbEntity
  8
default
  6
Continuous
 62
     2
100
AcDbLine
 10
-22.03699999999999
 20
85.03899999999999
 30
21.03499999999999
 11
-22.03699999999999
 21
85.57199999999999
 31
21.05199999999999
  0
LINE
  5
493
330
1E
100
AcDbEntity
  8
default
  6
Continuous
 62
     2
100
AcDbLine
 10
20.63
 20
85.03899999999999
 30
21.03499999999999
 11
20.629
 21
85.03899999999999
 31
21.05199999999999
  0
LINE
  5
494
330
1E
100
AcDbEntity
  8
default
  6
Continuous
 62
     2
100
AcDbLine
 10
-20.629
 20
85.57199999999999
 30
21.05199999999999
 11
22.03699999999999
 21
85.57199999999999
 31
21.05199999999999
  0
LINE
  5
495
330
1E
100
AcDbEntity
  8
default
  6
Continuous
 62
     2
100
AcDbLine
 10
20.629
 20
85.57199999999999
 30
21.05199999999999
 11
-22.03699999999999
 21
85.57199999999999
 31
21.05199999999999
  0
LINE
  5
496
330
1E
100
AcDbEntity
  8
default
  6
Continuous
 62
     2
100
AcDbLine
 10
-20.691
 20
149.186
 30
19.252
 11
21.97599999999999
 21
149.186
 31
19.252
  0
LINE
  5
497
330
1E
100
AcDbEntity
  8
default
  6
Continuous
 62
     2
100
AcDbLine
 10
20.691
 20
149.186
 30
19.252
 11
-21.97599999999999
 21
149.186
 31
19.252
  0
LINE
  5
498
330
1E
100
AcDbEntity
  8
default
  6
Continuous
 62
     2
100
AcDbLine
 10
21.97599999999999
 20
149.186
 30
19.252
 11
21.975
 21
149.7189999999999
 31
19.21199999999999
  0
LINE
  5
499
330
1E
100
AcDbEntity
  8
default
  6
Continuous
 62
     2
100
AcDbLine
 10
-20.691
 20
149.186
 30
19.252
 11
-20.69199999999999
 21
149.186
 31
19.21199999999999
  0
LINE
  5
49A
330
1E
100
AcDbEntity
  8
default
  6
Continuous
 62
     2
100
AcDbLine
 10
-21.97599999999999
 20
149.186
 30
19.252
 11
-21.975
 21
149.7189999999999
 31
19.21199999999999
  0
LINE
  5
49B
330
1E
100
AcDbEntity
  8
default
  6
Continuous
 62
     2
100
AcDbLine
 10
20.691
 20
149.186
 30
19.252
 11
20.69199999999999
 21
149.186
 31
19.21199999999999
  0
LINE
  5
49C
330
1E
100
AcDbEntity
  8
default
  6
Continuous
 62
     2
100
AcDbLine
 10
-20.69199999999999
 20
149.7189999999999
 30
19.21199999999999
 11
21.975
 21
149.7189999999999
 31
19.21199999999999
  0
LINE
  5
49D
330
1E
100
AcDbEntity
  8
default
  6
Continuous
 62
     2
100
AcDbLine
 10
20.69199999999999
 20
149.7189999999999
 30
19.21199999999999
 11
-21.975
 21
149.7189999999999
 31
19.21199999999999
  0
LINE
  5
49E
330
1E
100
AcDbEntity
  8
default
  6
Continuous
 62
     2
100
AcDbLine
 10
21.975
 20
149.7189999999999
 30
19.21199999999999
 11
21.973
 21
150.252
 31
19.17099999999999
  0
LINE
  5
49F
330
1E
100
AcDbEntity
  8
default
  6
Continuous
 62
     2
100
AcDbLine
 10
-20.69199999999999
 20
149.7189999999999
 30
19.21199999999999
 11
-20.693
 21
149.7189999999999
 31
19.17099999999999
  0
LINE
  5
4A0
330
1E
100
AcDbEntity
  8
default
  6
Continuous
 62
     2
100
AcDbLine
 10
-21.975
 20
149.7189999999999
 30
19.21199999999999
 11
-21.973
 21
150.252
 31
19.17099999999999
  0
LINE
  5
4A1
330
1E
100
AcDbEntity
  8
default
  6
Continuous
 62
     2
100
AcDbLine
 10
20.69199999999999
 20
149.7189999999999
 30
19.21199999999999
 11
20.693
 21
149.7189999999999
 31
19.17099999999999
  0
LINE
  5
4A2
330
1E
100
AcDbEntity
  8
default
  6
Continuous
 62
     2
100
AcDbLine
 10
-20.693
 20
150.252
 30
19.17099999999999
 11
21.973
 21
150.252
 31
19.17099999999999
  0
LINE
  5
4A3
330
1E
100
AcDbEntity
  8
default
  6
Continuous
 62
     2
100
AcDbLine
 10
20.693
 20
150.252
 30
19.17099999999999
 11
-21.973
 21
150.252
 31
19.17099999999999
  0
LINE
  5
4A4
330
1E
100
AcDbEntity
  8
default
  6
Continuous
 62
     2
100
AcDbLine
 10
21.973
 20
150.252
 30
19.17099999999999
 11
21.972
 21
150.7849999999999
 31
19.131
  0
LINE
  5
4A5
330
1E
100
AcDbEntity
  8
default
  6
Continuous
 62
     2
100
AcDbLine
 10
-20.693
 20
150.252
 30
19.17099999999999
 11
-20.695
 21
150.252
 31
19.131
  0
LINE
  5
4A6
330
1E
100
AcDbEntity
  8
default
  6
Continuous
 62
     2
100
AcDbLine
 10
-21.973
 20
150.252
 30
19.17099999999999
 11
-21.972
 21
150.7849999999999
 31
19.131
  0
LINE
  5
4A7
330
1E
100
AcDbEntity
  8
default
  6
Continuous
 62
     2
100
AcDbLine
 10
20.693
 20
150.252
 30
19.17099999999999
 11
20.695
 21
150.252
 31
19.131
  0
LINE
  5
4A8
330
1E
100
AcDbEntity
  8
default
  6
Continuous
 62
     2
100
AcDbLine
 10
-20.695
 20
150.7849999999999
 30
19.131
 11
21.972
 21
150.7849999999999
 31
19.131
  0
LINE
  5
4A9
330
1E
100
AcDbEntity
  8
default
  6
Continuous
 62
     2
100
AcDbLine
 10
20.695
 20
150.7849999999999
 30
19.131
 11
-21.972
 21
150.7849999999999
 31
19.131
  0
LINE
  5
4AA
330
1E
100
AcDbEntity
  8
default
  6
Continuous
 62
     2
100
AcDbLine
 10
21.972
 20
150.7849999999999
 30
19.131
 11
21.97
 21
151.317
 31
19.09099999999999
  0
LINE
  5
4AB
330
1E
100
AcDbEntity
  8
default
  6
Continuous
 62
     2
100
AcDbLine
 10
-20.695
 20
150.7849999999999
 30
19.131
 11
-20.69599999999999
 21
150.7849999999999
 31
19.09099999999999
  0
LINE
  5
4AC
330
1E
100
AcDbEntity
  8
default
  6
Continuous
 62
     2
100
AcDbLine
 10
-21.972
 20
150.7849999999999
 30
19.131
 11
-21.97
 21
151.317
 31
19.09099999999999
  0
LINE
  5
4AD
330
1E
100
AcDbEntity
  8
default
  6
Continuous
 62
     2
100
AcDbLine
 10
20.695
 20
150.7849999999999
 30
19.131
 11
20.69599999999999
 21
150.7849999999999
 31
19.09099999999999
  0
LINE
  5
4AE
330
1E
100
AcDbEntity
  8
default
  6
Continuous
 62
     2
100
AcDbLine
 10
-20.69599999999999
 20
151.317
 30
19.09099999999999
 11
21.97
 21
151.317
 31
19.09099999999999
  0
LINE
  5
4AF
330
1E
100
AcDbEntity
  8
default
  6
Continuous
 62
     2
100
AcDbLine
 10
20.69599999999999
 20
151.317
 30
19.09099999999999
 11
-21.97
 21
151.317
 31
19.09099999999999
  0
LINE
  5
4B0
330
1E
100
AcDbEntity
  8
default
  6
Continuous
 62
     2
100
AcDbLine
 10
21.97
 20
151.317
 30
19.09099999999999
 11
21.969
 21
151.8499999999999
 31
19.05
  0
LINE
  5
4B1
330
1E
100
AcDbEntity
  8
default
  6
Continuous
 62
     2
100
AcDbLine
 10
-20.69599999999999
 20
151.317
 30
19.09099999999999
 11
-20.698
 21
151.317
 31
19.05
  0
LINE
  5
4B2
330
1E
100
AcDbEntity
  8
default
  6
Continuous
 62
     2
100
AcDbLine
 10
-21.97
 20
151.317
 30
19.09099999999999
 11
-21.969
 21
151.8499999999999
 31
19.05
  0
LINE
  5
4B3
330
1E
100
AcDbEntity
  8
default
  6
Continuous
 62
     2
100
AcDbLine
 10
20.69599999999999
 20
151.317
 30
19.09099999999999
 11
20.698
 21
151.317
 31
19.05
  0
LINE
  5
4B4
330
1E
100
AcDbEntity
  8
default
  6
Continuous
 62
     2
100
AcDbLine
 10
-20.698
 20
151.8499999999999
 30
19.05
 11
21.969
 21
151.8499999999999
 31
19.05
  0
LINE
  5
4B5
330
1E
100
AcDbEntity
  8
default
  6
Continuous
 62
     2
100
AcDbLine
 10
20.698
 20
151.8499999999999
 30
19.05
 11
-21.969
 21
151.8499999999999
 31
19.05
  0
LINE
  5
4B6
330
1E
100
AcDbEntity
  8
default
  6
Continuous
 62
     2
100
AcDbLine
 10
21.969
 20
151.8499999999999
 30
19.05
 11
21.968
 21
152.3829999999999
 31
19.01
  0
LINE
  5
4B7
330
1E
100
AcDbEntity
  8
default
  6
Continuous
 62
     2
100
AcDbLine
 10
-20.698
 20
151.8499999999999
 30
19.05
 11
-20.699
 21
151.8499999999999
 31
19.01
  0
LINE
  5
4B8
330
1E
100
AcDbEntity
  8
default
  6
Continuous
 62
     2
100
AcDbLine
 10
-21.969
 20
151.8499999999999
 30
19.05
 11
-21.968
 21
152.3829999999999
 31
19.01
  0
LINE
  5
4B9
330
1E
100
AcDbEntity
  8
default
  6
Continuous
 62
     2
100
AcDbLine
 10
20.698
 20
151.8499999999999
 30
19.05
 11
20.699
 21
151.8499999999999
 31
19.01
  0
LINE
  5
4BA
330
1E
100
AcDbEntity
  8
default
  6
Continuous
 62
     2
100
AcDbLine
 10
-20.699
 20
152.3829999999999
 30
19.01
 11
21.968
 21
152.3829999999999
 31
19.01
  0
LINE
  5
4BB
330
1E
100
AcDbEntity
  8
default
  6
Continuous
 62
     2
100
AcDbLine
 10
20.699
 20
152.3829999999999
 30
19.01
 11
-21.968
 21
152.3829999999999
 31
19.01
  0
LINE
  5
4BC
330
1E
100
AcDbEntity
  8
default
  6
Continuous
 62
     2
100
AcDbLine
 10
21.968
 20
152.3829999999999
 30
19.01
 11
21.96599999999999
 21
152.916
 31
18.97
  0
LINE
  5
4BD
330
1E
100
AcDbEntity
  8
default
  6
Continuous
 62
     2
100
AcDbLine
 10
-20.699
 20
152.3829999999999
 30
19.01
 11
-20.69999999999999
 21
152.3829999999999
 31
18.97
  0
LINE
  5
4BE
330
1E
100
AcDbEntity
  8
default
  6
Continuous
 62
     2
100
AcDbLine
 10
-21.968
 20
152.3829999999999
 30
19.01
 11
-21.96599999999999
 21
152.916
 31
18.97
  0
LINE
  5
4BF
330
1E
100
AcDbEntity
  8
default
  6
Continuous
 62
     2
100
AcDbLine
 10
20.699
 20
152.3829999999999
 30
19.01
 11
20.69999999999999
 21
152.3829999999999
 31
18.97
  0
LINE
  5
4C0
330
1E
100
AcDbEntity
  8
default
  6
Continuous
 62
     2
100
AcDbLine
 10
-20.69999999999999
 20
152.916
 30
18.97
 11
21.96599999999999
 21
152.916
 31
18.97
  0
LINE
  5
4C1
330
1E
100
AcDbEntity
  8
default
  6
Continuous
 62
     2
100
AcDbLine
 10
20.69999999999999
 20
152.916
 30
18.97
 11
-21.96599999999999
 21
152.916
 31
18.97
  0
LINE
  5
4C2
330
1E
100
AcDbEntity
  8
default
  6
Continuous
 62
     2
100
AcDbLine
 10
21.96599999999999
 20
152.916
 30
18.97
 11
21.96499999999999
 21
153.4479999999999
 31
18.929
  0
LINE
  5
4C3
330
1E
100
AcDbEntity
  8
default
  6
Continuous
 62
     2
100
AcDbLine
 10
-20.69999999999999
 20
152.916
 30
18.97
 11
-20.70199999999999
 21
152.916
 31
18.929
  0
LINE
  5
4C4
330
1E
100
AcDbEntity
  8
default
  6
Continuous
 62
     2
100
AcDbLine
 10
-21.96599999999999
 20
152.916
 30
18.97
 11
-21.96499999999999
 21
153.4479999999999
 31
18.929
  0
LINE
  5
4C5
330
1E
100
AcDbEntity
  8
default
  6
Continuous
 62
     2
100
AcDbLine
 10
20.69999999999999
 20
152.916
 30
18.97
 11
20.70199999999999
 21
152.916
 31
18.929
  0
LINE
  5
4C6
330
1E
100
AcDbEntity
  8
default
  6
Continuous
 62
     2
100
AcDbLine
 10
-20.70199999999999
 20
153.4479999999999
 30
18.929
 11
21.96499999999999
 21
153.4479999999999
 31
18.929
  0
LINE
  5
4C7
330
1E
100
AcDbEntity
  8
default
  6
Continuous
 62
     2
100
AcDbLine
 10
20.70199999999999
 20
153.4479999999999
 30
18.929
 11
-21.96499999999999
 21
153.4479999999999
 31
18.929
  0
LINE
  5
4C8
330
1E
100
AcDbEntity
  8
default
  6
Continuous
 62
     2
100
AcDbLine
 10
21.96499999999999
 20
153.4479999999999
 30
18.929
 11
21.964
 21
153.9809999999999
 31
18.88899999999999
  0
LINE
  5
4C9
330
1E
100
AcDbEntity
  8
default
  6
Continuous
 62
     2
100
AcDbLine
 10
-20.70199999999999
 20
153.4479999999999
 30
18.929
 11
-20.703
 21
153.4479999999999
 31
18.88899999999999
  0
LINE
  5
4CA
330
1E
100
AcDbEntity
  8
default
  6
Continuous
 62
     2
100
AcDbLine
 10
-21.96499999999999
 20
153.4479999999999
 30
18.929
 11
-21.964
 21
153.9809999999999
 31
18.88899999999999
  0
LINE
  5
4CB
330
1E
100
AcDbEntity
  8
default
  6
Continuous
 62
     2
100
AcDbLine
 10
20.70199999999999
 20
153.4479999999999
 30
18.929
 11
20.703
 21
153.4479999999999
 31
18.88899999999999
  0
LINE
  5
4CC
330
1E
100
AcDbEntity
  8
default
  6
Continuous
 62
     2
100
AcDbLine
 10
-20.703
 20
153.9809999999999
 30
18.88899999999999
 11
21.964
 21
153.9809999999999
 31
18.88899999999999
  0
LINE
  5
4CD
330
1E
100
AcDbEntity
  8
default
  6
Continuous
 62
     2
100
AcDbLine
 10
20.703
 20
153.9809999999999
 30
18.88899999999999
 11
-21.964
 21
153.9809999999999
 31
18.88899999999999
  0
LINE
  5
4CE
330
1E
100
AcDbEntity
  8
default
  6
Continuous
 62
     2
100
AcDbLine
 10
21.964
 20
153.9809999999999
 30
18.88899999999999
 11
21.962
 21
154.514
 31
18.849
  0
LINE
  5
4CF
330
1E
100
AcDbEntity
  8
default
  6
Continuous
 62
     2
100
AcDbLine
 10
-20.703
 20
153.9809999999999
 30
18.88899999999999
 11
-20.704
 21
153.9809999999999
 31
18.849
  0
LINE
  5
4D0
330
1E
100
AcDbEntity
  8
default
  6
Continuous
 62
     2
100
AcDbLine
 10
-21.964
 20
153.9809999999999
 30
18.88899999999999
 11
-21.962
 21
154.514
 31
18.849
  0
LINE
  5
4D1
330
1E
100
AcDbEntity
  8
default
  6
Continuous
 62
     2
100
AcDbLine
 10
20.703
 20
153.9809999999999
 30
18.88899999999999
 11
20.704
 21
153.9809999999999
 31
18.849
  0
LINE
  5
4D2
330
1E
100
AcDbEntity
  8
default
  6
Continuous
 62
     2
100
AcDbLine
 10
-20.704
 20
154.514
 30
18.849
 11
21.962
 21
154.514
 31
18.849
  0
LINE
  5
4D3
330
1E
100
AcDbEntity
  8
default
  6
Continuous
 62
     2
100
AcDbLine
 10
20.704
 20
154.514
 30
18.849
 11
-21.962
 21
154.514
 31
18.849
  0
LINE
  5
4D4
330
1E
100
AcDbEntity
  8
default
  6
Continuous
 62
     2
100
AcDbLine
 10
21.962
 20
154.514
 30
18.849
 11
21.96099999999999
 21
155.0469999999999
 31
18.80499999999999
  0
LINE
  5
4D5
330
1E
100
AcDbEntity
  8
default
  6
Continuous
 62
     2
100
AcDbLine
 10
-20.704
 20
154.514
 30
18.849
 11
-20.706
 21
154.514
 31
18.80499999999999
  0
LINE
  5
4D6
330
1E
100
AcDbEntity
  8
default
  6
Continuous
 62
     2
100
AcDbLine
 10
-21.962
 20
154.514
 30
18.849
 11
-21.96099999999999
 21
155.0469999999999
 31
18.80499999999999
  0
LINE
  5
4D7
330
1E
100
AcDbEntity
  8
default
  6
Continuous
 62
     2
100
AcDbLine
 10
20.704
 20
154.514
 30
18.849
 11
20.706
 21
154.514
 31
18.80499999999999
  0
LINE
  5
4D8
330
1E
100
AcDbEntity
  8
default
  6
Continuous
 62
     2
100
AcDbLine
 10
-20.706
 20
155.0469999999999
 30
18.80499999999999
 11
21.96099999999999
 21
155.0469999999999
 31
18.80499999999999
  0
LINE
  5
4D9
330
1E
100
AcDbEntity
  8
default
  6
Continuous
 62
     2
100
AcDbLine
 10
20.706
 20
155.0469999999999
 30
18.80499999999999
 11
-21.96099999999999
 21
155.0469999999999
 31
18.80499999999999
  0
LINE
  5
4DA
330
1E
100
AcDbEntity
  8
default
  6
Continuous
 62
     2
100
AcDbLine
 10
21.96099999999999
 20
155.0469999999999
 30
18.80499999999999
 11
21.95899999999999
 21
155.579
 31
18.76
  0
LINE
  5
4DB
330
1E
100
AcDbEntity
  8
default
  6
Continuous
 62
     2
100
AcDbLine
 10
-20.706
 20
155.0469999999999
 30
18.80499999999999
 11
-20.70699999999999
 21
155.0469999999999
 31
18.76
  0
LINE
  5
4DC
330
1E
100
AcDbEntity
  8
default
  6
Continuous
 62
     2
100
AcDbLine
 10
-21.96099999999999
 20
155.0469999999999
 30
18.80499999999999
 11
-21.95899999999999
 21
155.579
 31
18.76
  0
LINE
  5
4DD
330
1E
100
AcDbEntity
  8
default
  6
Continuous
 62
     2
100
AcDbLine
 10
20.706
 20
155.0469999999999
 30
18.80499999999999
 11
20.70699999999999
 21
155.0469999999999
 31
18.76
  0
LINE
  5
4DE
330
1E
100
AcDbEntity
  8
default
  6
Continuous
 62
     2
100
AcDbLine
 10
-20.70699999999999
 20
155.579
 30
18.76
 11
21.95899999999999
 21
155.579
 31
18.76
  0
LINE
  5
4DF
330
1E
100
AcDbEntity
  8
default
  6
Continuous
 62
     2
100
AcDbLine
 10
20.70699999999999
 20
155.579
 30
18.76
 11
-21.95899999999999
 21
155.579
 31
18.76
  0
LINE
  5
4E0
330
1E
100
AcDbEntity
  8
default
  6
Continuous
 62
     2
100
AcDbLine
 10
21.95899999999999
 20
155.579
 30
18.76
 11
21.958
 21
156.112
 31
18.714
  0
LINE
  5
4E1
330
1E
100
AcDbEntity
  8
default
  6
Continuous
 62
     2
100
AcDbLine
 10
-20.70699999999999
 20
155.579
 30
18.76
 11
-20.70899999999999
 21
155.579
 31
18.714
  0
LINE
  5
4E2
330
1E
100
AcDbEntity
  8
default
  6
Continuous
 62
     2
100
AcDbLine
 10
-21.95899999999999
 20
155.579
 30
18.76
 11
-21.958
 21
156.112
 31
18.714
  0
LINE
  5
4E3
330
1E
100
AcDbEntity
  8
default
  6
Continuous
 62
     2
100
AcDbLine
 10
20.70699999999999
 20
155.579
 30
18.76
 11
20.70899999999999
 21
155.579
 31
18.714
  0
LINE
  5
4E4
330
1E
100
AcDbEntity
  8
default
  6
Continuous
 62
     2
100
AcDbLine
 10
-20.70899999999999
 20
156.112
 30
18.714
 11
21.958
 21
156.112
 31
18.714
  0
LINE
  5
4E5
330
1E
100
AcDbEntity
  8
default
  6
Continuous
 62
     2
100
AcDbLine
 10
20.70899999999999
 20
156.112
 30
18.714
 11
-21.958
 21
156.112
 31
18.714
  0
LINE
  5
4E6
330
1E
100
AcDbEntity
  8
default
  6
Continuous
 62
     2
100
AcDbLine
 10
21.958
 20
156.112
 30
18.714
 11
21.956
 21
156.645
 31
18.669
  0
LINE
  5
4E7
330
1E
100
AcDbEntity
  8
default
  6
Continuous
 62
     2
100
AcDbLine
 10
-20.70899999999999
 20
156.112
 30
18.714
 11
-20.71099999999999
 21
156.112
 31
18.669
  0
LINE
  5
4E8
330
1E
100
AcDbEntity
  8
default
  6
Continuous
 62
     2
100
AcDbLine
 10
-21.958
 20
156.112
 30
18.714
 11
-21.956
 21
156.645
 31
18.669
  0
LINE
  5
4E9
330
1E
100
AcDbEntity
  8
default
  6
Continuous
 62
     2
100
AcDbLine
 10
20.70899999999999
 20
156.112
 30
18.714
 11
20.71099999999999
 21
156.112
 31
18.669
  0
LINE
  5
4EA
330
1E
100
AcDbEntity
  8
default
  6
Continuous
 62
     2
100
AcDbLine
 10
-20.71099999999999
 20
156.645
 30
18.669
 11
21.956
 21
156.645
 31
18.669
  0
LINE
  5
4EB
330
1E
100
AcDbEntity
  8
default
  6
Continuous
 62
     2
100
AcDbLine
 10
20.71099999999999
 20
156.645
 30
18.669
 11
-21.956
 21
156.645
 31
18.669
  0
LINE
  5
4EC
330
1E
100
AcDbEntity
  8
default
  6
Continuous
 62
     2
100
AcDbLine
 10
21.956
 20
156.645
 30
18.669
 11
21.955
 21
157.1779999999999
 31
18.624
  0
LINE
  5
4ED
330
1E
100
AcDbEntity
  8
default
  6
Continuous
 62
     2
100
AcDbLine
 10
-20.71099999999999
 20
156.645
 30
18.669
 11
-20.712
 21
156.645
 31
18.624
  0
LINE
  5
4EE
330
1E
100
AcDbEntity
  8
default
  6
Continuous
 62
     2
100
AcDbLine
 10
-21.956
 20
156.645
 30
18.669
 11
-21.955
 21
157.1779999999999
 31
18.624
  0
LINE
  5
4EF
330
1E
100
AcDbEntity
  8
default
  6
Continuous
 62
     2
100
AcDbLine
 10
20.71099999999999
 20
156.645
 30
18.669
 11
20.712
 21
156.645
 31
18.624
  0
LINE
  5
4F0
330
1E
100
AcDbEntity
  8
default
  6
Continuous
 62
     2
100
AcDbLine
 10
-20.712
 20
157.1779999999999
 30
18.624
 11
21.955
 21
157.1779999999999
 31
18.624
  0
LINE
  5
4F1
330
1E
100
AcDbEntity
  8
default
  6
Continuous
 62
     2
100
AcDbLine
 10
20.712
 20
157.1779999999999
 30
18.624
 11
-21.955
 21
157.1779999999999
 31
18.624
  0
LINE
  5
4F2
330
1E
100
AcDbEntity
  8
default
  6
Continuous
 62
     2
100
AcDbLine
 10
21.955
 20
157.1779999999999
 30
18.624
 11
21.953
 21
157.71
 31
18.579
  0
LINE
  5
4F3
330
1E
100
AcDbEntity
  8
default
  6
Continuous
 62
     2
100
AcDbLine
 10
-20.712
 20
157.1779999999999
 30
18.624
 11
-20.714
 21
157.1779999999999
 31
18.579
  0
LINE
  5
4F4
330
1E
100
AcDbEntity
  8
default
  6
Continuous
 62
     2
100
AcDbLine
 10
-21.955
 20
157.1779999999999
 30
18.624
 11
-21.953
 21
157.71
 31
18.579
  0
LINE
  5
4F5
330
1E
100
AcDbEntity
  8
default
  6
Continuous
 62
     2
100
AcDbLine
 10
20.712
 20
157.1779999999999
 30
18.624
 11
20.714
 21
157.1779999999999
 31
18.579
  0
LINE
  5
4F6
330
1E
100
AcDbEntity
  8
default
  6
Continuous
 62
     2
100
AcDbLine
 10
-20.714
 20
157.71
 30
18.579
 11
21.953
 21
157.71
 31
18.579
  0
LINE
  5
4F7
330
1E
100
AcDbEntity
  8
default
  6
Continuous
 62
     2
100
AcDbLine
 10
20.714
 20
157.71
 30
18.579
 11
-21.953
 21
157.71
 31
18.579
  0
LINE
  5
4F8
330
1E
100
AcDbEntity
  8
default
  6
Continuous
 62
     2
100
AcDbLine
 10
21.953
 20
157.71
 30
18.579
 11
21.95199999999999
 21
158.243
 31
18.534
  0
LINE
  5
4F9
330
1E
100
AcDbEntity
  8
default
  6
Continuous
 62
     2
100
AcDbLine
 10
-20.714
 20
157.71
 30
18.579
 11
-20.71499999999999
 21
157.71
 31
18.534
  0
LINE
  5
4FA
330
1E
100
AcDbEntity
  8
default
  6
Continuous
 62
     2
100
AcDbLine
 10
-21.953
 20
157.71
 30
18.579
 11
-21.95199999999999
 21
158.243
 31
18.534
  0
LINE
  5
4FB
330
1E
100
AcDbEntity
  8
default
  6
Continuous
 62
     2
100
AcDbLine
 10
20.714
 20
157.71
 30
18.579
 11
20.71499999999999
 21
157.71
 31
18.534
  0
LINE
  5
4FC
330
1E
100
AcDbEntity
  8
default
  6
Continuous
 62
     2
100
AcDbLine
 10
-20.71499999999999
 20
158.243
 30
18.534
 11
21.95199999999999
 21
158.243
 31
18.534
  0
LINE
  5
4FD
330
1E
100
AcDbEntity
  8
default
  6
Continuous
 62
     2
100
AcDbLine
 10
20.71499999999999
 20
158.243
 30
18.534
 11
-21.95199999999999
 21
158.243
 31
18.534
  0
LINE
  5
4FE
330
1E
100
AcDbEntity
  8
default
  6
Continuous
 62
     2
100
AcDbLine
 10
21.95199999999999
 20
158.243
 30
18.534
 11
21.94999999999999
 21
158.776
 31
18.489
  0
LINE
  5
4FF
330
1E
100
AcDbEntity
  8
default
  6
Continuous
 62
     2
100
AcDbLine
 10
-20.71499999999999
 20
158.243
 30
18.534
 11
-20.71699999999999
 21
158.243
 31
18.489
  0
LINE
  5
500
330
1E
100
AcDbEntity
  8
default
  6
Continuous
 62
     2
100
AcDbLine
 10
-21.95199999999999
 20
158.243
 30
18.534
 11
-21.94999999999999
 21
158.776
 31
18.489
  0
LINE
  5
501
330
1E
100
AcDbEntity
  8
default
  6
Continuous
 62
     2
100
AcDbLine
 10
20.71499999999999
 20
158.243
 30
18.534
 11
20.71699999999999
 21
158.243
 31
18.489
  0
LINE
  5
502
330
1E
100
AcDbEntity
  8
default
  6
Continuous
 62
     2
100
AcDbLine
 10
-20.71699999999999
 20
158.776
 30
18.489
 11
21.94999999999999
 21
158.776
 31
18.489
  0
LINE
  5
503
330
1E
100
AcDbEntity
  8
default
  6
Continuous
 62
     2
100
AcDbLine
 10
20.71699999999999
 20
158.776
 30
18.489
 11
-21.94999999999999
 21
158.776
 31
18.489
  0
LINE
  5
504
330
1E
100
AcDbEntity
  8
default
  6
Continuous
 62
     2
100
AcDbLine
 10
21.94999999999999
 20
158.776
 30
18.489
 11
21.948
 21
159.309
 31
18.444
  0
LINE
  5
505
330
1E
100
AcDbEntity
  8
default
  6
Continuous
 62
     2
100
AcDbLine
 10
-20.71699999999999
 20
158.776
 30
18.489
 11
-20.718
 21
158.776
 31
18.444
  0
LINE
  5
506
330
1E
100
AcDbEntity
  8
default
  6
Continuous
 62
     2
100
AcDbLine
 10
-21.94999999999999
 20
158.776
 30
18.489
 11
-21.948
 21
159.309
 31
18.444
  0
LINE
  5
507
330
1E
100
AcDbEntity
  8
default
  6
Continuous
 62
     2
100
AcDbLine
 10
20.71699999999999
 20
158.776
 30
18.489
 11
20.718
 21
158.776
 31
18.444
  0
LINE
  5
508
330
1E
100
AcDbEntity
  8
default
  6
Continuous
 62
     2
100
AcDbLine
 10
-20.718
 20
159.309
 30
18.444
 11
21.948
 21
159.309
 31
18.444
  0
LINE
  5
509
330
1E
100
AcDbEntity
  8
default
  6
Continuous
 62
     2
100
AcDbLine
 10
20.718
 20
159.309
 30
18.444
 11
-21.948
 21
159.309
 31
18.444
  0
LINE
  5
50A
330
1E
100
AcDbEntity
  8
default
  6
Continuous
 62
     2
100
AcDbLine
 10
21.948
 20
159.309
 30
18.444
 11
21.947
 21
159.841
 31
18.399
  0
LINE
  5
50B
330
1E
100
AcDbEntity
  8
default
  6
Continuous
 62
     2
100
AcDbLine
 10
-20.718
 20
159.309
 30
18.444
 11
-20.72
 21
159.309
 31
18.399
  0
LINE
  5
50C
330
1E
100
AcDbEntity
  8
default
  6
Continuous
 62
     2
100
AcDbLine
 10
-21.948
 20
159.309
 30
18.444
 11
-21.947
 21
159.841
 31
18.399
  0
LINE
  5
50D
330
1E
100
AcDbEntity
  8
default
  6
Continuous
 62
     2
100
AcDbLine
 10
20.718
 20
159.309
 30
18.444
 11
20.72
 21
159.309
 31
18.399
  0
LINE
  5
50E
330
1E
100
AcDbEntity
  8
default
  6
Continuous
 62
     2
100
AcDbLine
 10
-20.72
 20
159.841
 30
18.399
 11
21.947
 21
159.841
 31
18.399
  0
LINE
  5
50F
330
1E
100
AcDbEntity
  8
default
  6
Continuous
 62
     2
100
AcDbLine
 10
20.72
 20
159.841
 30
18.399
 11
-21.947
 21
159.841
 31
18.399
  0
LINE
  5
510
330
1E
100
AcDbEntity
  8
default
  6
Continuous
 62
     2
100
AcDbLine
 10
-20.95
 20
219.087
 30
11.622
 11
21.71599999999999
 21
219.087
 31
11.622
  0
LINE
  5
511
330
1E
100
AcDbEntity
  8
default
  6
Continuous
 62
     2
100
AcDbLine
 10
20.95
 20
219.087
 30
11.622
 11
-21.71599999999999
 21
219.087
 31
11.622
  0
LINE
  5
512
330
1E
100
AcDbEntity
  8
default
  6
Continuous
 62
     2
100
AcDbLine
 10
21.71599999999999
 20
219.087
 30
11.622
 11
21.714
 21
219.619
 31
11.548
  0
LINE
  5
513
330
1E
100
AcDbEntity
  8
default
  6
Continuous
 62
     2
100
AcDbLine
 10
-20.95
 20
219.087
 30
11.622
 11
-20.953
 21
219.087
 31
11.548
  0
LINE
  5
514
330
1E
100
AcDbEntity
  8
default
  6
Continuous
 62
     2
100
AcDbLine
 10
-21.71599999999999
 20
219.087
 30
11.622
 11
-21.714
 21
219.619
 31
11.548
  0
LINE
  5
515
330
1E
100
AcDbEntity
  8
default
  6
Continuous
 62
     2
100
AcDbLine
 10
20.95
 20
219.087
 30
11.622
 11
20.953
 21
219.087
 31
11.548
  0
LINE
  5
516
330
1E
100
AcDbEntity
  8
default
  6
Continuous
 62
     2
100
AcDbLine
 10
-20.953
 20
219.619
 30
11.548
 11
21.714
 21
219.619
 31
11.548
  0
LINE
  5
517
330
1E
100
AcDbEntity
  8
default
  6
Continuous
 62
     2
100
AcDbLine
 10
20.953
 20
219.619
 30
11.548
 11
-21.714
 21
219.619
 31
11.548
  0
LINE
  5
518
330
1E
100
AcDbEntity
  8
default
  6
Continuous
 62
     2
100
AcDbLine
 10
21.714
 20
219.619
 30
11.548
 11
21.711
 21
220.152
 31
11.47299999999999
  0
LINE
  5
519
330
1E
100
AcDbEntity
  8
default
  6
Continuous
 62
     2
100
AcDbLine
 10
-20.953
 20
219.619
 30
11.548
 11
-20.956
 21
219.619
 31
11.47299999999999
  0
LINE
  5
51A
330
1E
100
AcDbEntity
  8
default
  6
Continuous
 62
     2
100
AcDbLine
 10
-21.714
 20
219.619
 30
11.548
 11
-21.711
 21
220.152
 31
11.47299999999999
  0
LINE
  5
51B
330
1E
100
AcDbEntity
  8
default
  6
Continuous
 62
     2
100
AcDbLine
 10
20.953
 20
219.619
 30
11.548
 11
20.956
 21
219.619
 31
11.47299999999999
  0
LINE
  5
51C
330
1E
100
AcDbEntity
  8
default
  6
Continuous
 62
     2
100
AcDbLine
 10
-20.956
 20
220.152
 30
11.47299999999999
 11
21.711
 21
220.152
 31
11.47299999999999
  0
LINE
  5
51D
330
1E
100
AcDbEntity
  8
default
  6
Continuous
 62
     2
100
AcDbLine
 10
20.956
 20
220.152
 30
11.47299999999999
 11
-21.711
 21
220.152
 31
11.47299999999999
  0
LINE
  5
51E
330
1E
100
AcDbEntity
  8
default
  6
Continuous
 62
     2
100
AcDbLine
 10
21.711
 20
220.152
 30
11.47299999999999
 11
21.709
 21
220.685
 31
11.399
  0
LINE
  5
51F
330
1E
100
AcDbEntity
  8
default
  6
Continuous
 62
     2
100
AcDbLine
 10
-20.956
 20
220.152
 30
11.47299999999999
 11
-20.958
 21
220.152
 31
11.399
  0
LINE
  5
520
330
1E
100
AcDbEntity
  8
default
  6
Continuous
 62
     2
100
AcDbLine
 10
-21.711
 20
220.152
 30
11.47299999999999
 11
-21.709
 21
220.685
 31
11.399
  0
LINE
  5
521
330
1E
100
AcDbEntity
  8
default
  6
Continuous
 62
     2
100
AcDbLine
 10
20.956
 20
220.152
 30
11.47299999999999
 11
20.958
 21
220.152
 31
11.399
  0
LINE
  5
522
330
1E
100
AcDbEntity
  8
default
  6
Continuous
 62
     2
100
AcDbLine
 10
-20.958
 20
220.685
 30
11.399
 11
21.709
 21
220.685
 31
11.399
  0
LINE
  5
523
330
1E
100
AcDbEntity
  8
default
  6
Continuous
 62
     2
100
AcDbLine
 10
20.958
 20
220.685
 30
11.399
 11
-21.709
 21
220.685
 31
11.399
  0
LINE
  5
524
330
1E
100
AcDbEntity
  8
default
  6
Continuous
 62
     2
100
AcDbLine
 10
21.709
 20
220.685
 30
11.399
 11
21.70599999999999
 21
221.218
 31
11.324
  0
LINE
  5
525
330
1E
100
AcDbEntity
  8
default
  6
Continuous
 62
     2
100
AcDbLine
 10
-20.958
 20
220.685
 30
11.399
 11
-20.96099999999999
 21
220.685
 31
11.324
  0
LINE
  5
526
330
1E
100
AcDbEntity
  8
default
  6
Continuous
 62
     2
100
AcDbLine
 10
-21.709
 20
220.685
 30
11.399
 11
-21.70599999999999
 21
221.218
 31
11.324
  0
LINE
  5
527
330
1E
100
AcDbEntity
  8
default
  6
Continuous
 62
     2
100
AcDbLine
 10
20.958
 20
220.685
 30
11.399
 11
20.96099999999999
 21
220.685
 31
11.324
  0
LINE
  5
528
330
1E
100
AcDbEntity
  8
default
  6
Continuous
 62
     2
100
AcDbLine
 10
-20.96099999999999
 20
221.218
 30
11.324
 11
21.70599999999999
 21
221.218
 31
11.324
  0
LINE
  5
529
330
1E
100
AcDbEntity
  8
default
  6
Continuous
 62
     2
100
AcDbLine
 10
20.96099999999999
 20
221.218
 30
11.324
 11
-21.70599999999999
 21
221.218
 31
11.324
  0
LINE
  5
52A
330
1E
100
AcDbEntity
  8
default
  6
Continuous
 62
     2
100
AcDbLine
 10
21.70599999999999
 20
221.218
 30
11.324
 11
21.704
 21
221.75
 31
11.249
  0
LINE
  5
52B
330
1E
100
AcDbEntity
  8
default
  6
Continuous
 62
     2
100
AcDbLine
 10
-20.96099999999999
 20
221.218
 30
11.324
 11
-20.963
 21
221.218
 31
11.249
  0
LINE
  5
52C
330
1E
100
AcDbEntity
  8
default
  6
Continuous
 62
     2
100
AcDbLine
 10
-21.70599999999999
 20
221.218
 30
11.324
 11
-21.704
 21
221.75
 31
11.249
  0
LINE
  5
52D
330
1E
100
AcDbEntity
  8
default
  6
Continuous
 62
     2
100
AcDbLine
 10
20.96099999999999
 20
221.218
 30
11.324
 11
20.963
 21
221.218
 31
11.249
  0
LINE
  5
52E
330
1E
100
AcDbEntity
  8
default
  6
Continuous
 62
     2
100
AcDbLine
 10
-20.963
 20
221.75
 30
11.249
 11
21.704
 21
221.75
 31
11.249
  0
LINE
  5
52F
330
1E
100
AcDbEntity
  8
default
  6
Continuous
 62
     2
100
AcDbLine
 10
20.963
 20
221.75
 30
11.249
 11
-21.704
 21
221.75
 31
11.249
  0
LINE
  5
530
330
1E
100
AcDbEntity
  8
default
  6
Continuous
 62
     2
100
AcDbLine
 10
21.704
 20
221.75
 30
11.249
 11
21.701
 21
222.283
 31
11.175
  0
LINE
  5
531
330
1E
100
AcDbEntity
  8
default
  6
Continuous
 62
     2
100
AcDbLine
 10
-20.963
 20
221.75
 30
11.249
 11
-20.966
 21
221.75
 31
11.175
  0
LINE
  5
532
330
1E
100
AcDbEntity
  8
default
  6
Continuous
 62
     2
100
AcDbLine
 10
-21.704
 20
221.75
 30
11.249
 11
-21.701
 21
222.283
 31
11.175
  0
LINE
  5
533
330
1E
100
AcDbEntity
  8
default
  6
Continuous
 62
     2
100
AcDbLine
 10
20.963
 20
221.75
 30
11.249
 11
20.966
 21
221.75
 31
11.175
  0
LINE
  5
534
330
1E
100
AcDbEntity
  8
default
  6
Continuous
 62
     2
100
AcDbLine
 10
-20.966
 20
222.283
 30
11.175
 11
21.701
 21
222.283
 31
11.175
  0
LINE
  5
535
330
1E
100
AcDbEntity
  8
default
  6
Continuous
 62
     2
100
AcDbLine
 10
20.966
 20
222.283
 30
11.175
 11
-21.701
 21
222.283
 31
11.175
  0
LINE
  5
536
330
1E
100
AcDbEntity
  8
default
  6
Continuous
 62
     2
100
AcDbLine
 10
21.701
 20
222.283
 30
11.175
 11
21.69799999999999
 21
222.8159999999999
 31
11.1
  0
LINE
  5
537
330
1E
100
AcDbEntity
  8
default
  6
Continuous
 62
     2
100
AcDbLine
 10
-20.966
 20
222.283
 30
11.175
 11
-20.968
 21
222.283
 31
11.1
  0
LINE
  5
538
330
1E
100
AcDbEntity
  8
default
  6
Continuous
 62
     2
100
AcDbLine
 10
-21.701
 20
222.283
 30
11.175
 11
-21.69799999999999
 21
222.8159999999999
 31
11.1
  0
LINE
  5
539
330
1E
100
AcDbEntity
  8
default
  6
Continuous
 62
     2
100
AcDbLine
 10
20.966
 20
222.283
 30
11.175
 11
20.968
 21
222.283
 31
11.1
  0
LINE
  5
53A
330
1E
100
AcDbEntity
  8
default
  6
Continuous
 62
     2
100
AcDbLine
 10
-20.968
 20
222.8159999999999
 30
11.1
 11
21.69799999999999
 21
222.8159999999999
 31
11.1
  0
LINE
  5
53B
330
1E
100
AcDbEntity
  8
default
  6
Continuous
 62
     2
100
AcDbLine
 10
20.968
 20
222.8159999999999
 30
11.1
 11
-21.69799999999999
 21
222.8159999999999
 31
11.1
  0
LINE
  5
53C
330
1E
100
AcDbEntity
  8
default
  6
Continuous
 62
     2
100
AcDbLine
 10
21.69799999999999
 20
222.8159999999999
 30
11.1
 11
21.69599999999999
 21
223.349
 31
11.026
  0
LINE
  5
53D
330
1E
100
AcDbEntity
  8
default
  6
Continuous
 62
     2
100
AcDbLine
 10
-20.968
 20
222.8159999999999
 30
11.1
 11
-20.971
 21
222.8159999999999
 31
11.026
  0
LINE
  5
53E
330
1E
100
AcDbEntity
  8
default
  6
Continuous
 62
     2
100
AcDbLine
 10
-21.69799999999999
 20
222.8159999999999
 30
11.1
 11
-21.69599999999999
 21
223.349
 31
11.026
  0
LINE
  5
53F
330
1E
100
AcDbEntity
  8
default
  6
Continuous
 62
     2
100
AcDbLine
 10
20.968
 20
222.8159999999999
 30
11.1
 11
20.971
 21
222.8159999999999
 31
11.026
  0
LINE
  5
540
330
1E
100
AcDbEntity
  8
default
  6
Continuous
 62
     2
100
AcDbLine
 10
-20.971
 20
223.349
 30
11.026
 11
21.69599999999999
 21
223.349
 31
11.026
  0
LINE
  5
541
330
1E
100
AcDbEntity
  8
default
  6
Continuous
 62
     2
100
AcDbLine
 10
20.971
 20
223.349
 30
11.026
 11
-21.69599999999999
 21
223.349
 31
11.026
  0
LINE
  5
542
330
1E
100
AcDbEntity
  8
default
  6
Continuous
 62
     2
100
AcDbLine
 10
21.69599999999999
 20
223.349
 30
11.026
 11
21.693
 21
223.8809999999999
 31
10.95099999999999
  0
LINE
  5
543
330
1E
100
AcDbEntity
  8
default
  6
Continuous
 62
     2
100
AcDbLine
 10
-20.971
 20
223.349
 30
11.026
 11
-20.973
 21
223.349
 31
10.95099999999999
  0
LINE
  5
544
330
1E
100
AcDbEntity
  8
default
  6
Continuous
 62
     2
100
AcDbLine
 10
-21.69599999999999
 20
223.349
 30
11.026
 11
-21.693
 21
223.8809999999999
 31
10.95099999999999
  0
LINE
  5
545
330
1E
100
AcDbEntity
  8
default
  6
Continuous
 62
     2
100
AcDbLine
 10
20.971
 20
223.349
 30
11.026
 11
20.973
 21
223.349
 31
10.95099999999999
  0
LINE
  5
546
330
1E
100
AcDbEntity
  8
default
  6
Continuous
 62
     2
100
AcDbLine
 10
-20.973
 20
223.8809999999999
 30
10.95099999999999
 11
21.693
 21
223.8809999999999
 31
10.95099999999999
  0
LINE
  5
547
330
1E
100
AcDbEntity
  8
default
  6
Continuous
 62
     2
100
AcDbLine
 10
20.973
 20
223.8809999999999
 30
10.95099999999999
 11
-21.693
 21
223.8809999999999
 31
10.95099999999999
  0
LINE
  5
548
330
1E
100
AcDbEntity
  8
default
  6
Continuous
 62
     2
100
AcDbLine
 10
21.693
 20
223.8809999999999
 30
10.95099999999999
 11
21.69099999999999
 21
224.414
 31
10.875
  0
LINE
  5
549
330
1E
100
AcDbEntity
  8
default
  6
Continuous
 62
     2
100
AcDbLine
 10
-20.973
 20
223.8809999999999
 30
10.95099999999999
 11
-20.97599999999999
 21
223.8809999999999
 31
10.875
  0
LINE
  5
54A
330
1E
100
AcDbEntity
  8
default
  6
Continuous
 62
     2
100
AcDbLine
 10
-21.693
 20
223.8809999999999
 30
10.95099999999999
 11
-21.69099999999999
 21
224.414
 31
10.875
  0
LINE
  5
54B
330
1E
100
AcDbEntity
  8
default
  6
Continuous
 62
     2
100
AcDbLine
 10
20.973
 20
223.8809999999999
 30
10.95099999999999
 11
20.97599999999999
 21
223.8809999999999
 31
10.875
  0
LINE
  5
54C
330
1E
100
AcDbEntity
  8
default
  6
Continuous
 62
     2
100
AcDbLine
 10
-20.97599999999999
 20
224.414
 30
10.875
 11
21.69099999999999
 21
224.414
 31
10.875
  0
LINE
  5
54D
330
1E
100
AcDbEntity
  8
default
  6
Continuous
 62
     2
100
AcDbLine
 10
20.97599999999999
 20
224.414
 30
10.875
 11
-21.69099999999999
 21
224.414
 31
10.875
  0
LINE
  5
54E
330
1E
100
AcDbEntity
  8
default
  6
Continuous
 62
     2
100
AcDbLine
 10
21.69099999999999
 20
224.414
 30
10.875
 11
21.688
 21
224.947
 31
10.798
  0
LINE
  5
54F
330
1E
100
AcDbEntity
  8
default
  6
Continuous
 62
     2
100
AcDbLine
 10
-20.97599999999999
 20
224.414
 30
10.875
 11
-20.979
 21
224.414
 31
10.798
  0
LINE
  5
550
330
1E
100
AcDbEntity
  8
default
  6
Continuous
 62
     2
100
AcDbLine
 10
-21.69099999999999
 20
224.414
 30
10.875
 11
-21.688
 21
224.947
 31
10.798
  0
LINE
  5
551
330
1E
100
AcDbEntity
  8
default
  6
Continuous
 62
     2
100
AcDbLine
 10
20.97599999999999
 20
224.414
 30
10.875
 11
20.979
 21
224.414
 31
10.798
  0
LINE
  5
552
330
1E
100
AcDbEntity
  8
default
  6
Continuous
 62
     2
100
AcDbLine
 10
-20.979
 20
224.947
 30
10.798
 11
21.688
 21
224.947
 31
10.798
  0
LINE
  5
553
330
1E
100
AcDbEntity
  8
default
  6
Continuous
 62
     2
100
AcDbLine
 10
20.979
 20
224.947
 30
10.798
 11
-21.688
 21
224.947
 31
10.798
  0
LINE
  5
554
330
1E
100
AcDbEntity
  8
default
  6
Continuous
 62
     2
100
AcDbLine
 10
21.688
 20
224.947
 30
10.798
 11
21.686
 21
225.4799999999999
 31
10.72
  0
LINE
  5
555
330
1E
100
AcDbEntity
  8
default
  6
Continuous
 62
     2
100
AcDbLine
 10
-20.979
 20
224.947
 30
10.798
 11
-20.981
 21
224.947
 31
10.72
  0
LINE
  5
556
330
1E
100
AcDbEntity
  8
default
  6
Continuous
 62
     2
100
AcDbLine
 10
-21.688
 20
224.947
 30
10.798
 11
-21.686
 21
225.4799999999999
 31
10.72
  0
LINE
  5
557
330
1E
100
AcDbEntity
  8
default
  6
Continuous
 62
     2
100
AcDbLine
 10
20.979
 20
224.947
 30
10.798
 11
20.981
 21
224.947
 31
10.72
  0
LINE
  5
558
330
1E
100
AcDbEntity
  8
default
  6
Continuous
 62
     2
100
AcDbLine
 10
-20.981
 20
225.4799999999999
 30
10.72
 11
21.686
 21
225.4799999999999
 31
10.72
  0
LINE
  5
559
330
1E
100
AcDbEntity
  8
default
  6
Continuous
 62
     2
100
AcDbLine
 10
20.981
 20
225.4799999999999
 30
10.72
 11
-21.686
 21
225.4799999999999
 31
10.72
  0
LINE
  5
55A
330
1E
100
AcDbEntity
  8
default
  6
Continuous
 62
     2
100
AcDbLine
 10
21.686
 20
225.4799999999999
 30
10.72
 11
21.683
 21
226.012
 31
10.643
  0
LINE
  5
55B
330
1E
100
AcDbEntity
  8
default
  6
Continuous
 62
     2
100
AcDbLine
 10
-20.981
 20
225.4799999999999
 30
10.72
 11
-20.984
 21
225.4799999999999
 31
10.643
  0
LINE
  5
55C
330
1E
100
AcDbEntity
  8
default
  6
Continuous
 62
     2
100
AcDbLine
 10
-21.686
 20
225.4799999999999
 30
10.72
 11
-21.683
 21
226.012
 31
10.643
  0
LINE
  5
55D
330
1E
100
AcDbEntity
  8
default
  6
Continuous
 62
     2
100
AcDbLine
 10
20.981
 20
225.4799999999999
 30
10.72
 11
20.984
 21
225.4799999999999
 31
10.643
  0
LINE
  5
55E
330
1E
100
AcDbEntity
  8
default
  6
Continuous
 62
     2
100
AcDbLine
 10
-20.984
 20
226.012
 30
10.643
 11
21.683
 21
226.012
 31
10.643
  0
LINE
  5
55F
330
1E
100
AcDbEntity
  8
default
  6
Continuous
 62
     2
100
AcDbLine
 10
20.984
 20
226.012
 30
10.643
 11
-21.683
 21
226.012
 31
10.643
  0
LINE
  5
560
330
1E
100
AcDbEntity
  8
default
  6
Continuous
 62
     2
100
AcDbLine
 10
21.683
 20
226.012
 30
10.643
 11
21.68
 21
226.5449999999999
 31
10.56599999999999
  0
LINE
  5
561
330
1E
100
AcDbEntity
  8
default
  6
Continuous
 62
     2
100
AcDbLine
 10
-20.984
 20
226.012
 30
10.643
 11
-20.986
 21
226.012
 31
10.56599999999999
  0
LINE
  5
562
330
1E
100
AcDbEntity
  8
default
  6
Continuous
 62
     2
100
AcDbLine
 10
-21.683
 20
226.012
 30
10.643
 11
-21.68
 21
226.5449999999999
 31
10.56599999999999
  0
LINE
  5
563
330
1E
100
AcDbEntity
  8
default
  6
Continuous
 62
     2
100
AcDbLine
 10
20.984
 20
226.012
 30
10.643
 11
20.986
 21
226.012
 31
10.56599999999999
  0
LINE
  5
564
330
1E
100
AcDbEntity
  8
default
  6
Continuous
 62
     2
100
AcDbLine
 10
-20.986
 20
226.5449999999999
 30
10.56599999999999
 11
21.68
 21
226.5449999999999
 31
10.56599999999999
  0
LINE
  5
565
330
1E
100
AcDbEntity
  8
default
  6
Continuous
 62
     2
100
AcDbLine
 10
20.986
 20
226.5449999999999
 30
10.56599999999999
 11
-21.68
 21
226.5449999999999
 31
10.56599999999999
  0
LINE
  5
566
330
1E
100
AcDbEntity
  8
default
  6
Continuous
 62
     2
100
AcDbLine
 10
21.68
 20
226.5449999999999
 30
10.56599999999999
 11
21.678
 21
227.078
 31
10.48799999999999
  0
LINE
  5
567
330
1E
100
AcDbEntity
  8
default
  6
Continuous
 62
     2
100
AcDbLine
 10
-20.986
 20
226.5449999999999
 30
10.56599999999999
 11
-20.98899999999999
 21
226.5449999999999
 31
10.48799999999999
  0
LINE
  5
568
330
1E
100
AcDbEntity
  8
default
  6
Continuous
 62
     2
100
AcDbLine
 10
-21.68
 20
226.5449999999999
 30
10.56599999999999
 11
-21.678
 21
227.078
 31
10.48799999999999
  0
LINE
  5
569
330
1E
100
AcDbEntity
  8
default
  6
Continuous
 62
     2
100
AcDbLine
 10
20.986
 20
226.5449999999999
 30
10.56599999999999
 11
20.98899999999999
 21
226.5449999999999
 31
10.48799999999999
  0
LINE
  5
56A
330
1E
100
AcDbEntity
  8
default
  6
Continuous
 62
     2
100
AcDbLine
 10
-20.98899999999999
 20
227.078
 30
10.48799999999999
 11
21.678
 21
227.078
 31
10.48799999999999
  0
LINE
  5
56B
330
1E
100
AcDbEntity
  8
default
  6
Continuous
 62
     2
100
AcDbLine
 10
20.98899999999999
 20
227.078
 30
10.48799999999999
 11
-21.678
 21
227.078
 31
10.48799999999999
  0
LINE
  5
56C
330
1E
100
AcDbEntity
  8
default
  6
Continuous
 62
     2
100
AcDbLine
 10
21.678
 20
227.078
 30
10.48799999999999
 11
21.67499999999999
 21
227.611
 31
10.41099999999999
  0
LINE
  5
56D
330
1E
100
AcDbEntity
  8
default
  6
Continuous
 62
     2
100
AcDbLine
 10
-20.98899999999999
 20
227.078
 30
10.48799999999999
 11
-20.99199999999999
 21
227.078
 31
10.41099999999999
  0
LINE
  5
56E
330
1E
100
AcDbEntity
  8
default
  6
Continuous
 62
     2
100
AcDbLine
 10
-21.678
 20
227.078
 30
10.48799999999999
 11
-21.67499999999999
 21
227.611
 31
10.41099999999999
  0
LINE
  5
56F
330
1E
100
AcDbEntity
  8
default
  6
Continuous
 62
     2
100
AcDbLine
 10
20.98899999999999
 20
227.078
 30
10.48799999999999
 11
20.99199999999999
 21
227.078
 31
10.41099999999999
  0
LINE
  5
570
330
1E
100
AcDbEntity
  8
default
  6
Continuous
 62
     2
100
AcDbLine
 10
-20.99199999999999
 20
227.611
 30
10.41099999999999
 11
21.67499999999999
 21
227.611
 31
10.41099999999999
  0
LINE
  5
571
330
1E
100
AcDbEntity
  8
default
  6
Continuous
 62
     2
100
AcDbLine
 10
20.99199999999999
 20
227.611
 30
10.41099999999999
 11
-21.67499999999999
 21
227.611
 31
10.41099999999999
  0
LINE
  5
572
330
1E
100
AcDbEntity
  8
default
  6
Continuous
 62
     2
100
AcDbLine
 10
21.67499999999999
 20
227.611
 30
10.41099999999999
 11
21.67199999999999
 21
228.1429999999999
 31
10.334
  0
LINE
  5
573
330
1E
100
AcDbEntity
  8
default
  6
Continuous
 62
     2
100
AcDbLine
 10
-20.99199999999999
 20
227.611
 30
10.41099999999999
 11
-20.994
 21
227.611
 31
10.334
  0
LINE
  5
574
330
1E
100
AcDbEntity
  8
default
  6
Continuous
 62
     2
100
AcDbLine
 10
-21.67499999999999
 20
227.611
 30
10.41099999999999
 11
-21.67199999999999
 21
228.1429999999999
 31
10.334
  0
LINE
  5
575
330
1E
100
AcDbEntity
  8
default
  6
Continuous
 62
     2
100
AcDbLine
 10
20.99199999999999
 20
227.611
 30
10.41099999999999
 11
20.994
 21
227.611
 31
10.334
  0
LINE
  5
576
330
1E
100
AcDbEntity
  8
default
  6
Continuous
 62
     2
100
AcDbLine
 10
-20.994
 20
228.1429999999999
 30
10.334
 11
21.67199999999999
 21
228.1429999999999
 31
10.334
  0
LINE
  5
577
330
1E
100
AcDbEntity
  8
default
  6
Continuous
 62
     2
100
AcDbLine
 10
20.994
 20
228.1429999999999
 30
10.334
 11
-21.67199999999999
 21
228.1429999999999
 31
10.334
  0
LINE
  5
578
330
1E
100
AcDbEntity
  8
default
  6
Continuous
 62
     2
100
AcDbLine
 10
21.67199999999999
 20
228.1429999999999
 30
10.334
 11
21.67
 21
228.676
 31
10.25599999999999
  0
LINE
  5
579
330
1E
100
AcDbEntity
  8
default
  6
Continuous
 62
     2
100
AcDbLine
 10
-20.994
 20
228.1429999999999
 30
10.334
 11
-20.99699999999999
 21
228.1429999999999
 31
10.25599999999999
  0
LINE
  5
57A
330
1E
100
AcDbEntity
  8
default
  6
Continuous
 62
     2
100
AcDbLine
 10
-21.67199999999999
 20
228.1429999999999
 30
10.334
 11
-21.67
 21
228.676
 31
10.25599999999999
  0
LINE
  5
57B
330
1E
100
AcDbEntity
  8
default
  6
Continuous
 62
     2
100
AcDbLine
 10
20.994
 20
228.1429999999999
 30
10.334
 11
20.99699999999999
 21
228.1429999999999
 31
10.25599999999999
  0
LINE
  5
57C
330
1E
100
AcDbEntity
  8
default
  6
Continuous
 62
     2
100
AcDbLine
 10
-20.99699999999999
 20
228.676
 30
10.25599999999999
 11
21.67
 21
228.676
 31
10.25599999999999
  0
LINE
  5
57D
330
1E
100
AcDbEntity
  8
default
  6
Continuous
 62
     2
100
AcDbLine
 10
20.99699999999999
 20
228.676
 30
10.25599999999999
 11
-21.67
 21
228.676
 31
10.25599999999999
  0
LINE
  5
57E
330
1E
100
AcDbEntity
  8
default
  6
Continuous
 62
     2
100
AcDbLine
 10
21.67
 20
228.676
 30
10.25599999999999
 11
21.667
 21
229.2089999999999
 31
10.179
  0
LINE
  5
57F
330
1E
100
AcDbEntity
  8
default
  6
Continuous
 62
     2
100
AcDbLine
 10
-20.99699999999999
 20
228.676
 30
10.25599999999999
 11
-21.0
 21
228.676
 31
10.179
  0
LINE
  5
580
330
1E
100
AcDbEntity
  8
default
  6
Continuous
 62
     2
100
AcDbLine
 10
-21.67
 20
228.676
 30
10.25599999999999
 11
-21.667
 21
229.2089999999999
 31
10.179
  0
LINE
  5
581
330
1E
100
AcDbEntity
  8
default
  6
Continuous
 62
     2
100
AcDbLine
 10
20.99699999999999
 20
228.676
 30
10.25599999999999
 11
21.0
 21
228.676
 31
10.179
  0
LINE
  5
582
330
1E
100
AcDbEntity
  8
default
  6
Continuous
 62
     2
100
AcDbLine
 10
-21.0
 20
229.2089999999999
 30
10.179
 11
21.667
 21
229.2089999999999
 31
10.179
  0
LINE
  5
583
330
1E
100
AcDbEntity
  8
default
  6
Continuous
 62
     2
100
AcDbLine
 10
21.0
 20
229.2089999999999
 30
10.179
 11
-21.667
 21
229.2089999999999
 31
10.179
  0
LINE
  5
584
330
1E
100
AcDbEntity
  8
default
  6
Continuous
 62
     2
100
AcDbLine
 10
21.667
 20
229.2089999999999
 30
10.179
 11
21.664
 21
229.742
 31
10.10199999999999
  0
LINE
  5
585
330
1E
100
AcDbEntity
  8
default
  6
Continuous
 62
     2
100
AcDbLine
 10
-21.0
 20
229.2089999999999
 30
10.179
 11
-21.002
 21
229.2089999999999
 31
10.10199999999999
  0
LINE
  5
586
330
1E
100
AcDbEntity
  8
default
  6
Continuous
 62
     2
100
AcDbLine
 10
-21.667
 20
229.2089999999999
 30
10.179
 11
-21.664
 21
229.742
 31
10.10199999999999
  0
LINE
  5
587
330
1E
100
AcDbEntity
  8
default
  6
Continuous
 62
     2
100
AcDbLine
 10
21.0
 20
229.2089999999999
 30
10.179
 11
21.002
 21
229.2089999999999
 31
10.10199999999999
  0
LINE
  5
588
330
1E
100
AcDbEntity
  8
default
  6
Continuous
 62
     2
100
AcDbLine
 10
-21.002
 20
229.742
 30
10.10199999999999
 11
21.664
 21
229.742
 31
10.10199999999999
  0
LINE
  5
589
330
1E
100
AcDbEntity
  8
default
  6
Continuous
 62
     2
100
AcDbLine
 10
21.002
 20
229.742
 30
10.10199999999999
 11
-21.664
 21
229.742
 31
10.10199999999999
  0
ENDSEC
  0
SECTION
  2
OBJECTS
  0
DICTIONARY
  5
C
330
0
100
AcDbDictionary
281
     1
  3
ACAD_GROUP
350
D
  3
ACAD_LAYOUT
350
19
  3
ACAD_MLINESTYLE
350
16
  3
ACAD_PLOTSETTINGS
350
18
  3
ACAD_PLOTSTYLENAME
350
E
  3
AcDbVariableDictionary
350
595
  3
ADE_QUERY_LIBRARY
350
593
  3
ASE_INDEX_DICTIONARY
350
58F
1001
ADE
1000
ADE02C004
1000
[Query]
1000
CaseSensitiveMatch=0
1000
SaveCurrQueryInSession=1
1000
MkSelSetWithQryObj=0
1000
ShowBlockAsInsPt=0
1000
CreateAssociativeHatchObjects=0
1000
ReferenceBoundaryForAreaLocation=1
1000
ShowImageAsBoundary=1
1000
DefaultJoinOperator=2
1000
ColorForAdd=red
1000
ColorForRemove=red
1000
BlockLocnForQuery=1
1000
TextLocnForQuery=1
1000
[Save Back]
1000
RedefineBlockDefinitions=1
1000
RedefineLayerDefinitions=1
1000
RedefineTextStyleDefinitions=1
1000
RemoveUnusedGroups=1
1000
EraseSavedBackObjects=1
1000
RemoveLockAfterSave=1
1000
CreateHistoryFileOfChanges=0
1000
CreateBackupFileOfSourceDwg=1
1000
DontAddObjectsToSaveSet=0
1000
MarkObjectsForEditingWithoutPrompting=0
1000
[Coordinate Transformation]
1000
RestoreLastActiveDwgsOnStartup=1
1000
ActivateDwgsOnAttach=1
1000
AdjustSizesAndScalesForChangesInUnits=1
1000
AdjustRotationsForMapDistortions=1
1000
AdjustSizesAndScalesForMapDistortions=1
1000
AdjustElevations=1
1000
AdjustZeroRotationObjects=1
1000
ReconnectDbOnWSOpen=1
1000
NoOfSQLConditionsInHistory=10
  0
DICTIONARY
  5
D
102
{ACAD_REACTORS
330
C
102
}
330
C
100
AcDbDictionary
281
     1
  0
DICTIONARY
  5
19
102
{ACAD_REACTORS
330
C
102
}
330
C
100
AcDbDictionary
281
     1
  3
Layout1
350
1D
  3
Model
350
21
  0
DICTIONARY
  5
16
102
{ACAD_REACTORS
330
C
102
}
330
C
100
AcDbDictionary
281
     1
  3
Standard
350
17
  0
DICTIONARY
  5
18
102
{ACAD_REACTORS
330
C
102
}
330
C
100
AcDbDictionary
281
     1
  0
ACDBDICTIONARYWDFLT
  5
E
102
{ACAD_REACTORS
330
C
102
}
330
C
100
AcDbDictionary
281
     1
  3
Normal
350
F
100
AcDbDictionaryWithDefault
340
F
  0
DICTIONARY
  5
595
102
{ACAD_REACTORS
330
C
102
}
330
C
100
AcDbDictionary
281
     1
  3
DIMASSOC
350
596
  0
DICTIONARY
  5
593
102
{ACAD_REACTORS
330
C
102
}
330
C
100
AcDbDictionary
281
     1
  3
_CurrQry
350
594
  0
DICTIONARY
  5
58F
102
{ACAD_REACTORS
330
C
102
}
330
C
100
AcDbDictionary
281
     1
  3
ASEBlockHierarchyIndexRecord
350
591
1001
DCO15
1040
2045477637.678
  0
LAYOUT
  5
1D
102
{ACAD_REACTORS
330
19
102
}
330
19
100
AcDbPlotSettings
  1

  2
C:\Program Files\Autodesk Map 5\plotters\DWF ePlot (optimized for plotting).pc3
  4

  6

 40
0.0
 41
0.0
 42
0.0
 43
0.0
 44
0.0
 45
0.0
 46
0.0
 47
0.0
 48
0.0
 49
0.0
140
0.0
141
0.0
142
1.0
143
1.0
 70
   688
 72
     0
 73
     0
 74
     5
  7

 75
    16
147
1.0
148
0.0
149
0.0
100
AcDbLayout
  1
Layout1
 70
     1
 71
     1
 10
0.0
 20
0.0
 11
12.0
 21
9.0
 12
0.0
 22
0.0
 32
0.0
 14
1.000000000000000E+20
 24
1.000000000000000E+20
 34
1.000000000000000E+20
 15
-1.000000000000000E+20
 25
-1.000000000000000E+20
 35
-1.000000000000000E+20
146
0.0
 13
0.0
 23
0.0
 33
0.0
 16
1.0
 26
0.0
 36
0.0
 17
0.0
 27
1.0
 37
0.0
 76
     0
330
1A
  0
LAYOUT
  5
21
102
{ACAD_REACTORS
330
19
102
}
330
19
100
AcDbPlotSettings
  1

  2
C:\Program Files\Autodesk Map 5\plotters\DWF ePlot (optimized for plotting).pc3
  4

  6

 40
0.0
 41
0.0
 42
0.0
 43
0.0
 44
0.0
 45
0.0
 46
0.0
 47
0.0
 48
0.0
 49
0.0
140
0.0
141
0.0
142
1.0
143
1.0
 70
  1712
 72
     0
 73
     0
 74
     0
  7

 75
     0
147
1.0
148
0.0
149
0.0
100
AcDbLayout
  1
Model
 70
     1
 71
     0
 10
0.0
 20
0.0
 11
12.0
 21
9.0
 12
0.0
 22
0.0
 32
0.0
 14
0.0
 24
0.0
 34
0.0
 15
0.0
 25
0.0
 35
0.0
146
0.0
 13
0.0
 23
0.0
 33
0.0
 16
1.0
 26
0.0
 36
0.0
 17
0.0
 27
1.0
 37
0.0
 76
     0
330
1E
  0
MLINESTYLE
  5
17
102
{ACAD_REACTORS
330
16
102
}
330
16
100
AcDbMlineStyle
  2
STANDARD
 70
     0
  3

 62
   256
 51
90.0
 52
90.0
 71
     2
 49
0.5
 62
   256
  6
BYLAYER
 49
-0.5
 62
   256
  6
BYLAYER
  0
ACDBPLACEHOLDER
  5
F
102
{ACAD_REACTORS
330
E
102
}
330
E
  0
DICTIONARYVAR
  5
596
102
{ACAD_REACTORS
330
595
102
}
330
595
100
DictionaryVariables
280
     0
  1
1
  0
XRECORD
  5
594
102
{ACAD_REACTORS
330
593
102
}
330
593
100
AcDbXrecord
280
     1
1000
ADE02C001
1070
     1
1070
     0
1002
{
1002
}
1002
{
1002
}
1002
{
1002
}
1000

  0
XRECORD
  5
591
102
{ACAD_REACTORS
330
58F
102
}
330
58F
100
AcDbXrecord
280
     1
  0
ENDSEC
  0
EOF
