  0
SECTION
  2
HEADER
  9
$ACADVER
  1
AC1015
  9
$ACADMAINTVER
 70
6
  9
$DWGCODEPAGE
  3
ANSI_1252
  9
$INSBASE
 10
0.0
 20
0.0
 30
0.0
  9
$EXTMIN
 10
-100
 20
-100
 30
-100
  9
$EXTMAX
 10
100
 20
100
 30
100
  9
$LIMMIN
 10
0.0
 20
0.0
  9
$LIMMAX
 10
420.0
 20
297.0
  9
$ORTHOMODE
 70
0
  9
$REGENMODE
 70
1
  9
$FILLMODE
 70
1
  9
$QTEXTMODE
 70
0
  9
$MIRRTEXT
 70
1
  9
$LTSCALE
 40
1.0
  9
$ATTMODE
 70
1
  9
$TEXTSIZE
 40
2.5
  9
$TRACEWID
 40
1.0
  9
$TEXTSTYLE
  7
Standard
  9
$CLAYER
  8
0
  9
$CELTYPE
  6
ByLayer
  9
$CECOLOR
 62
256
  9
$CELTSCALE
 40
1.0
  9
$DISPSILH
 70
0
  9
$DIMSCALE
 40
1.0
  9
$DIMASZ
 40
2.5
  9
$DIMEXO
 40
0.625
  9
$DIMDLI
 40
3.75
  9
$DIMRND
 40
0.0
  9
$DIMDLE
 40
0.0
  9
$DIMEXE
 40
1.25
  9
$DIMTP
 40
0.0
  9
$DIMTM
 40
0.0
  9
$DIMTXT
 40
2.5
  9
$DIMCEN
 40
2.5
  9
$DIMTSZ
 40
0.0
  9
$DIMTOL
 70
0
  9
$DIMLIM
 70
0
  9
$DIMTIH
 70
0
  9
$DIMTOH
 70
0
  9
$DIMSE1
 70
0
  9
$DIMSE2
 70
0
  9
$DIMTAD
 70
1
  9
$DIMZIN
 70
8
  9
$DIMBLK
  1

  9
$DIMASO
 70
1
  9
$DIMSHO
 70
1
  9
$DIMPOST
  1

  9
$DIMAPOST
  1

  9
$DIMALT
 70
0
  9
$DIMALTD
 70
3
  9
$DIMALTF
 40
0.03937007874
  9
$DIMLFAC
 40
1.0
  9
$DIMTOFL
 70
1
  9
$DIMTVP
 40
0.0
  9
$DIMTIX
 70
0
  9
$DIMSOXD
 70
0
  9
$DIMSAH
 70
0
  9
$DIMBLK1
  1

  9
$DIMBLK2
  1

  9
$DIMSTYLE
  2
ISO-25
  9
$DIMCLRD
 70
0
  9
$DIMCLRE
 70
0
  9
$DIMCLRT
 70
0
  9
$DIMTFAC
 40
1.0
  9
$DIMGAP
 40
0.625
  9
$DIMJUST
 70
0
  9
$DIMSD1
 70
0
  9
$DIMSD2
 70
0
  9
$DIMTOLJ
 70
0
  9
$DIMTZIN
 70
8
  9
$DIMALTZ
 70
0
  9
$DIMALTTZ
 70
0
  9
$DIMUPT
 70
0
  9
$DIMDEC
 70
2
  9
$DIMTDEC
 70
2
  9
$DIMALTU
 70
2
  9
$DIMALTTD
 70
3
  9
$DIMTXSTY
  7
Standard
  9
$DIMAUNIT
 70
0
  9
$DIMADEC
 70
0
  9
$DIMALTRND
 40
0.0
  9
$DIMAZIN
 70
0
  9
$DIMDSEP
 70
44
  9
$DIMATFIT
 70
3
  9
$DIMFRAC
 70
0
  9
$DIMLDRBLK
  1

  9
$DIMLUNIT
 70
2
  9
$DIMLWD
 70
-2
  9
$DIMLWE
 70
-2
  9
$DIMTMOVE
 70
0
  9
$LUNITS
 70
2
  9
$LUPREC
 70
4
  9
$SKETCHINC
 40
1.0
  9
$FILLETRAD
 40
10.0
  9
$AUNITS
 70
0
  9
$AUPREC
 70
2
  9
$MENU
  1
.
  9
$ELEVATION
 40
0.0
  9
$PELEVATION
 40
0.0
  9
$THICKNESS
 40
0.0
  9
$LIMCHECK
 70
0
  9
$CHAMFERA
 40
0.0
  9
$CHAMFERB
 40
0.0
  9
$CHAMFERC
 40
0.0
  9
$CHAMFERD
 40
0.0
  9
$SKPOLY
 70
0
  9
$TDCREATE
 40
2459188.969375
  9
$TDUCREATE
 40
2458532.153996898
  9
$TDUPDATE
 40
2459188.969375
  9
$TDUUPDATE
 40
2458532.1544311
  9
$TDINDWG
 40
0.0
  9
$TDUSRTIMER
 40
0.0
  9
$USRTIMER
 70
1
  9
$ANGBASE
 50
0.0
  9
$ANGDIR
 70
0
  9
$PDMODE
 70
0
  9
$PDSIZE
 40
0.0
  9
$PLINEWID
 40
0.0
  9
$SPLFRAME
 70
0
  9
$SPLINETYPE
 70
6
  9
$SPLINESEGS
 70
8
  9
$HANDSEED
  5
31F
  9
$SURFTAB1
 70
6
  9
$SURFTAB2
 70
6
  9
$SURFTYPE
 70
6
  9
$SURFU
 70
6
  9
$SURFV
 70
6
  9
$UCSBASE
  2

  9
$UCSNAME
  2

  9
$UCSORG
 10
0.0
 20
0.0
 30
0.0
  9
$UCSXDIR
 10
1.0
 20
0.0
 30
0.0
  9
$UCSYDIR
 10
0.0
 20
1.0
 30
0.0
  9
$UCSORTHOREF
  2

  9
$UCSORTHOVIEW
 70
0
  9
$UCSORGTOP
 10
0.0
 20
0.0
 30
0.0
  9
$UCSORGBOTTOM
 10
0.0
 20
0.0
 30
0.0
  9
$UCSORGLEFT
 10
0.0
 20
0.0
 30
0.0
  9
$UCSORGRIGHT
 10
0.0
 20
0.0
 30
0.0
  9
$UCSORGFRONT
 10
0.0
 20
0.0
 30
0.0
  9
$UCSORGBACK
 10
0.0
 20
0.0
 30
0.0
  9
$PUCSBASE
  2

  9
$PUCSNAME
  2

  9
$PUCSORG
 10
0.0
 20
0.0
 30
0.0
  9
$PUCSXDIR
 10
1.0
 20
0.0
 30
0.0
  9
$PUCSYDIR
 10
0.0
 20
1.0
 30
0.0
  9
$PUCSORTHOREF
  2

  9
$PUCSORTHOVIEW
 70
0
  9
$PUCSORGTOP
 10
0.0
 20
0.0
 30
0.0
  9
$PUCSORGBOTTOM
 10
0.0
 20
0.0
 30
0.0
  9
$PUCSORGLEFT
 10
0.0
 20
0.0
 30
0.0
  9
$PUCSORGRIGHT
 10
0.0
 20
0.0
 30
0.0
  9
$PUCSORGFRONT
 10
0.0
 20
0.0
 30
0.0
  9
$PUCSORGBACK
 10
0.0
 20
0.0
 30
0.0
  9
$USERI1
 70
0
  9
$USERI2
 70
0
  9
$USERI3
 70
0
  9
$USERI4
 70
0
  9
$USERI5
 70
0
  9
$USERR1
 40
0.0
  9
$USERR2
 40
0.0
  9
$USERR3
 40
0.0
  9
$USERR4
 40
0.0
  9
$USERR5
 40
0.0
  9
$WORLDVIEW
 70
1
  9
$SHADEDGE
 70
3
  9
$SHADEDIF
 70
70
  9
$TILEMODE
 70
1
  9
$MAXACTVP
 70
64
  9
$PINSBASE
 10
0.0
 20
0.0
 30
0.0
  9
$PLIMCHECK
 70
0
  9
$PEXTMIN
 10
1e+20
 20
1e+20
 30
1e+20
  9
$PEXTMAX
 10
-1e+20
 20
-1e+20
 30
-1e+20
  9
$PLIMMIN
 10
0.0
 20
0.0
  9
$PLIMMAX
 10
420.0
 20
297.0
  9
$UNITMODE
 70
0
  9
$VISRETAIN
 70
1
  9
$PLINEGEN
 70
0
  9
$PSLTSCALE
 70
1
  9
$TREEDEPTH
 70
3020
  9
$CMLSTYLE
  2
Standard
  9
$CMLJUST
 70
0
  9
$CMLSCALE
 40
20.0
  9
$PROXYGRAPHICS
 70
1
  9
$MEASUREMENT
 70
1
  9
$CELWEIGHT
370
-1
  9
$ENDCAPS
280
0
  9
$JOINSTYLE
280
0
  9
$LWDISPLAY
290
0
  9
$INSUNITS
 70
6
  9
$HYPERLINKBASE
  1

  9
$STYLESHEET
  1

  9
$XEDIT
290
1
  9
$CEPSNTYPE
380
0
  9
$PSTYLEMODE
290
1
  9
$FINGERPRINTGUID
  2
468F4886-367E-11EB-B1A5-C2B9DDCE3D85
  9
$VERSIONGUID
  2
468F4888-367E-11EB-B1A5-C2B9DDCE3D85
  9
$EXTNAMES
290
1
  9
$PSVPSCALE
 40
0.0
  9
$OLESTARTUP
290
0
  0
ENDSEC
  0
SECTION
  2
CLASSES
  0
CLASS
  1
ACDBDICTIONARYWDFLT
  2
AcDbDictionaryWithDefault
  3
ObjectDBX Classes
 90
0
280
0
281
0
  0
CLASS
  1
SUN
  2
AcDbSun
  3
SCENEOE
 90
1153
280
0
281
0
  0
CLASS
  1
VISUALSTYLE
  2
AcDbVisualStyle
  3
ObjectDBX Classes
 90
4095
280
0
281
0
  0
CLASS
  1
MATERIAL
  2
AcDbMaterial
  3
ObjectDBX Classes
 90
1153
280
0
281
0
  0
CLASS
  1
SCALE
  2
AcDbScale
  3
ObjectDBX Classes
 90
1153
280
0
281
0
  0
CLASS
  1
TABLESTYLE
  2
AcDbTableStyle
  3
ObjectDBX Classes
 90
4095
280
0
281
0
  0
CLASS
  1
MLEADERSTYLE
  2
AcDbMLeaderStyle
  3
ACDB_MLEADERSTYLE_CLASS
 90
4095
280
0
281
0
  0
CLASS
  1
DICTIONARYVAR
  2
AcDbDictionaryVar
  3
ObjectDBX Classes
 90
0
280
0
281
0
  0
CLASS
  1
CELLSTYLEMAP
  2
AcDbCellStyleMap
  3
ObjectDBX Classes
 90
1152
280
0
281
0
  0
CLASS
  1
MENTALRAYRENDERSETTINGS
  2
AcDbMentalRayRenderSettings
  3
SCENEOE
 90
1024
280
0
281
0
  0
CLASS
  1
ACDBDETAILVIEWSTYLE
  2
AcDbDetailViewStyle
  3
ObjectDBX Classes
 90
1025
280
0
281
0
  0
CLASS
  1
ACDBSECTIONVIEWSTYLE
  2
AcDbSectionViewStyle
  3
ObjectDBX Classes
 90
1025
280
0
281
0
  0
CLASS
  1
RASTERVARIABLES
  2
AcDbRasterVariables
  3
ISM
 90
0
280
0
281
0
  0
CLASS
  1
ACDBPLACEHOLDER
  2
AcDbPlaceHolder
  3
ObjectDBX Classes
 90
0
280
0
281
0
  0
CLASS
  1
LAYOUT
  2
AcDbLayout
  3
ObjectDBX Classes
 90
0
280
0
281
0
  0
ENDSEC
  0
SECTION
  2
TABLES
  0
TABLE
  2
VPORT
  5
8
330
0
100
AcDbSymbolTable
 70
1
  0
VPORT
  5
1EF
330
8
100
AcDbSymbolTableRecord
100
AcDbViewportTableRecord
  2
*ACTIVE
 70
0
 10
0.0
 20
0.0
 11
1.0
 21
1.0
 12
1700.0
 22
-1700.0
 13
0.0
 23
0.0
 14
0.5
 24
0.5
 15
0.5
 25
0.5
 16
0.0
 26
0.0
 36
1.0
 17
0.0
 27
0.0
 37
0.0
 40
5400.0
 41
1.0
 42
50.0
 43
0.0
 44
0.0
 50
0.0
 51
0.0
 71
0
 72
1000
 73
1
 74
3
 75
0
 76
0
 77
0
 78
0
281
0
 65
0
146
0.0
  0
ENDTAB
  0
TABLE
  2
LTYPE
  5
2
330
0
100
AcDbSymbolTable
 70
3
  0
LTYPE
  5
24
330
2
100
AcDbSymbolTableRecord
100
AcDbLinetypeTableRecord
  2
ByBlock
 70
0
  3

 72
65
 73
0
 40
0.0
  0
LTYPE
  5
25
330
2
100
AcDbSymbolTableRecord
100
AcDbLinetypeTableRecord
  2
ByLayer
 70
0
  3

 72
65
 73
0
 40
0.0
  0
LTYPE
  5
26
330
2
100
AcDbSymbolTableRecord
100
AcDbLinetypeTableRecord
  2
Continuous
 70
0
  3

 72
65
 73
0
 40
0.0
  0
ENDTAB
  0
TABLE
  2
LAYER
  5
1
330
0
100
AcDbSymbolTable
 70
2
  0
LAYER
  5
27
330
1
100
AcDbSymbolTableRecord
100
AcDbLayerTableRecord
  2
0
 70
0
 62
7
  6
Continuous
370
-3
390
13
  0
LAYER
  5
28
330
1
100
AcDbSymbolTableRecord
100
AcDbLayerTableRecord
  2
Defpoints
 70
0
 62
7
  6
Continuous
290
0
370
-3
390
13
  0
ENDTAB
  0
TABLE
  2
STYLE
  5
5
330
0
100
AcDbSymbolTable
 70
1
  0
STYLE
  5
29
330
5
100
AcDbSymbolTableRecord
100
AcDbTextStyleTableRecord
  2
Standard
 70
0
 40
0.0
 41
1.0
 50
0.0
 71
0
 42
2.5
  3
txt
  4

  0
ENDTAB
  0
TABLE
  2
VIEW
  5
7
330
0
100
AcDbSymbolTable
 70
0
  0
ENDTAB
  0
TABLE
  2
UCS
  5
6
330
0
100
AcDbSymbolTable
 70
0
  0
ENDTAB
  0
TABLE
  2
APPID
  5
3
330
0
100
AcDbSymbolTable
 70
2
  0
APPID
  5
2A
330
3
100
AcDbSymbolTableRecord
100
AcDbRegAppTableRecord
  2
ACAD
 70
0
  0
APPID
  5
31E
330
3
100
AcDbSymbolTableRecord
100
AcDbRegAppTableRecord
  2
HATCHBACKGROUNDCOLOR
 70
0
  0
ENDTAB
  0
TABLE
  2
DIMSTYLE
  5
4
330
0
100
AcDbSymbolTable
 70
1
100
AcDbDimStyleTable
  0
DIMSTYLE
105
2B
330
4
100
AcDbSymbolTableRecord
100
AcDbDimStyleTableRecord
  2
Standard
 70
0
  3

  4

 40
1.0
 41
2.5
 42
0.625
 43
3.75
 44
1.25
 45
0.0
 46
0.0
 47
0.0
 48
0.0
140
2.5
141
2.5
142
0.0
143
0.03937007874
144
1.0
145
0.0
146
1.0
147
0.625
148
0.0
 71
0
 72
0
 73
0
 74
0
 75
0
 76
0
 77
1
 78
8
 79
0
170
0
171
3
172
1
173
0
174
0
175
0
176
0
177
0
178
0
179
0
271
0
272
2
273
2
274
3
275
0
276
0
277
2
278
44
279
0
280
0
281
0
282
0
283
0
284
8
285
0
286
0
288
0
289
3
371
-2
372
-2
  0
ENDTAB
  0
TABLE
  2
BLOCK_RECORD
  5
9
330
0
100
AcDbSymbolTable
 70
52
  0
BLOCK_RECORD
  5
17
330
9
100
AcDbSymbolTableRecord
100
AcDbBlockTableRecord
  2
*Model_Space
340
1A
  0
BLOCK_RECORD
  5
1B
330
9
100
AcDbSymbolTableRecord
100
AcDbBlockTableRecord
  2
*Paper_Space
340
1E
  0
BLOCK_RECORD
  5
1F2
330
9
100
AcDbSymbolTableRecord
100
AcDbBlockTableRecord
  2
*Paper_Space0
340
1F5
  0
BLOCK_RECORD
  5
1F8
330
9
100
AcDbSymbolTableRecord
100
AcDbBlockTableRecord
  2
*Paper_Space1
340
1FB
  0
BLOCK_RECORD
  5
1FE
330
9
100
AcDbSymbolTableRecord
100
AcDbBlockTableRecord
  2
*Paper_Space2
340
201
  0
BLOCK_RECORD
  5
204
330
9
100
AcDbSymbolTableRecord
100
AcDbBlockTableRecord
  2
*Paper_Space3
340
207
  0
BLOCK_RECORD
  5
20A
330
9
100
AcDbSymbolTableRecord
100
AcDbBlockTableRecord
  2
*Paper_Space4
340
20D
  0
BLOCK_RECORD
  5
210
330
9
100
AcDbSymbolTableRecord
100
AcDbBlockTableRecord
  2
*Paper_Space5
340
213
  0
BLOCK_RECORD
  5
216
330
9
100
AcDbSymbolTableRecord
100
AcDbBlockTableRecord
  2
*Paper_Space6
340
219
  0
BLOCK_RECORD
  5
21C
330
9
100
AcDbSymbolTableRecord
100
AcDbBlockTableRecord
  2
*Paper_Space7
340
21F
  0
BLOCK_RECORD
  5
222
330
9
100
AcDbSymbolTableRecord
100
AcDbBlockTableRecord
  2
*Paper_Space8
340
225
  0
BLOCK_RECORD
  5
228
330
9
100
AcDbSymbolTableRecord
100
AcDbBlockTableRecord
  2
*Paper_Space9
340
22B
  0
BLOCK_RECORD
  5
22E
330
9
100
AcDbSymbolTableRecord
100
AcDbBlockTableRecord
  2
*Paper_Space10
340
231
  0
BLOCK_RECORD
  5
234
330
9
100
AcDbSymbolTableRecord
100
AcDbBlockTableRecord
  2
*Paper_Space11
340
237
  0
BLOCK_RECORD
  5
23A
330
9
100
AcDbSymbolTableRecord
100
AcDbBlockTableRecord
  2
*Paper_Space12
340
23D
  0
BLOCK_RECORD
  5
240
330
9
100
AcDbSymbolTableRecord
100
AcDbBlockTableRecord
  2
*Paper_Space13
340
243
  0
BLOCK_RECORD
  5
246
330
9
100
AcDbSymbolTableRecord
100
AcDbBlockTableRecord
  2
*Paper_Space14
340
249
  0
BLOCK_RECORD
  5
24C
330
9
100
AcDbSymbolTableRecord
100
AcDbBlockTableRecord
  2
*Paper_Space15
340
24F
  0
BLOCK_RECORD
  5
252
330
9
100
AcDbSymbolTableRecord
100
AcDbBlockTableRecord
  2
*Paper_Space16
340
255
  0
BLOCK_RECORD
  5
258
330
9
100
AcDbSymbolTableRecord
100
AcDbBlockTableRecord
  2
*Paper_Space17
340
25B
  0
BLOCK_RECORD
  5
25E
330
9
100
AcDbSymbolTableRecord
100
AcDbBlockTableRecord
  2
*Paper_Space18
340
261
  0
BLOCK_RECORD
  5
264
330
9
100
AcDbSymbolTableRecord
100
AcDbBlockTableRecord
  2
*Paper_Space19
340
267
  0
BLOCK_RECORD
  5
26A
330
9
100
AcDbSymbolTableRecord
100
AcDbBlockTableRecord
  2
*Paper_Space20
340
26D
  0
BLOCK_RECORD
  5
270
330
9
100
AcDbSymbolTableRecord
100
AcDbBlockTableRecord
  2
*Paper_Space21
340
273
  0
BLOCK_RECORD
  5
276
330
9
100
AcDbSymbolTableRecord
100
AcDbBlockTableRecord
  2
*Paper_Space22
340
279
  0
BLOCK_RECORD
  5
27C
330
9
100
AcDbSymbolTableRecord
100
AcDbBlockTableRecord
  2
*Paper_Space23
340
27F
  0
BLOCK_RECORD
  5
282
330
9
100
AcDbSymbolTableRecord
100
AcDbBlockTableRecord
  2
*Paper_Space24
340
285
  0
BLOCK_RECORD
  5
288
330
9
100
AcDbSymbolTableRecord
100
AcDbBlockTableRecord
  2
*Paper_Space25
340
28B
  0
BLOCK_RECORD
  5
28E
330
9
100
AcDbSymbolTableRecord
100
AcDbBlockTableRecord
  2
*Paper_Space26
340
291
  0
BLOCK_RECORD
  5
294
330
9
100
AcDbSymbolTableRecord
100
AcDbBlockTableRecord
  2
*Paper_Space27
340
297
  0
BLOCK_RECORD
  5
29A
330
9
100
AcDbSymbolTableRecord
100
AcDbBlockTableRecord
  2
*Paper_Space28
340
29D
  0
BLOCK_RECORD
  5
2A0
330
9
100
AcDbSymbolTableRecord
100
AcDbBlockTableRecord
  2
*Paper_Space29
340
2A3
  0
BLOCK_RECORD
  5
2A6
330
9
100
AcDbSymbolTableRecord
100
AcDbBlockTableRecord
  2
*Paper_Space30
340
2A9
  0
BLOCK_RECORD
  5
2AC
330
9
100
AcDbSymbolTableRecord
100
AcDbBlockTableRecord
  2
*Paper_Space31
340
2AF
  0
BLOCK_RECORD
  5
2B2
330
9
100
AcDbSymbolTableRecord
100
AcDbBlockTableRecord
  2
*Paper_Space32
340
2B5
  0
BLOCK_RECORD
  5
2B8
330
9
100
AcDbSymbolTableRecord
100
AcDbBlockTableRecord
  2
*Paper_Space33
340
2BB
  0
BLOCK_RECORD
  5
2BE
330
9
100
AcDbSymbolTableRecord
100
AcDbBlockTableRecord
  2
*Paper_Space34
340
2C1
  0
BLOCK_RECORD
  5
2C4
330
9
100
AcDbSymbolTableRecord
100
AcDbBlockTableRecord
  2
*Paper_Space35
340
2C7
  0
BLOCK_RECORD
  5
2CA
330
9
100
AcDbSymbolTableRecord
100
AcDbBlockTableRecord
  2
*Paper_Space36
340
2CD
  0
BLOCK_RECORD
  5
2D0
330
9
100
AcDbSymbolTableRecord
100
AcDbBlockTableRecord
  2
*Paper_Space37
340
2D3
  0
BLOCK_RECORD
  5
2D6
330
9
100
AcDbSymbolTableRecord
100
AcDbBlockTableRecord
  2
*Paper_Space38
340
2D9
  0
BLOCK_RECORD
  5
2DC
330
9
100
AcDbSymbolTableRecord
100
AcDbBlockTableRecord
  2
*Paper_Space39
340
2DF
  0
BLOCK_RECORD
  5
2E2
330
9
100
AcDbSymbolTableRecord
100
AcDbBlockTableRecord
  2
*Paper_Space40
340
2E5
  0
BLOCK_RECORD
  5
2E8
330
9
100
AcDbSymbolTableRecord
100
AcDbBlockTableRecord
  2
*Paper_Space41
340
2EB
  0
BLOCK_RECORD
  5
2EE
330
9
100
AcDbSymbolTableRecord
100
AcDbBlockTableRecord
  2
*Paper_Space42
340
2F1
  0
BLOCK_RECORD
  5
2F4
330
9
100
AcDbSymbolTableRecord
100
AcDbBlockTableRecord
  2
*Paper_Space43
340
2F7
  0
BLOCK_RECORD
  5
2FA
330
9
100
AcDbSymbolTableRecord
100
AcDbBlockTableRecord
  2
*Paper_Space44
340
2FD
  0
BLOCK_RECORD
  5
300
330
9
100
AcDbSymbolTableRecord
100
AcDbBlockTableRecord
  2
*Paper_Space45
340
303
  0
BLOCK_RECORD
  5
306
330
9
100
AcDbSymbolTableRecord
100
AcDbBlockTableRecord
  2
*Paper_Space46
340
309
  0
BLOCK_RECORD
  5
30C
330
9
100
AcDbSymbolTableRecord
100
AcDbBlockTableRecord
  2
*Paper_Space47
340
30F
  0
BLOCK_RECORD
  5
312
330
9
100
AcDbSymbolTableRecord
100
AcDbBlockTableRecord
  2
*Paper_Space48
340
315
  0
BLOCK_RECORD
  5
318
330
9
100
AcDbSymbolTableRecord
100
AcDbBlockTableRecord
  2
*Paper_Space49
340
31B
  0
ENDTAB
  0
ENDSEC
  0
SECTION
  2
BLOCKS
  0
BLOCK
  5
18
330
17
100
AcDbEntity
  8
0
100
AcDbBlockBegin
  2
*Model_Space
 70
0
 10
0.0
 20
0.0
 30
0.0
  3
*Model_Space
  1

  0
ENDBLK
  5
19
330
17
100
AcDbEntity
  8
0
100
AcDbBlockEnd
  0
BLOCK
  5
1C
330
1B
100
AcDbEntity
  8
0
100
AcDbBlockBegin
  2
*Paper_Space
 70
0
 10
0.0
 20
0.0
 30
0.0
  3
*Paper_Space
  1

  0
ENDBLK
  5
1D
330
1B
100
AcDbEntity
  8
0
100
AcDbBlockEnd
  0
BLOCK
  5
1F3
330
1F2
100
AcDbEntity
  8
0
100
AcDbBlockBegin
  2
*Paper_Space0
 70
0
 10
0.0
 20
0.0
 30
0.0
  3
*Paper_Space0
  1

  0
VIEWPORT
  5
1F6
330
1F2
100
AcDbEntity
 67
1
  8
VIEWPORTS
100
AcDbViewport
 10
105.0
 20
148.5
 30
0.0
 40
231.00000000000003
 41
326.70000000000005
 68
1
 69
1
 12
105.0
 22
148.5
 13
0.0
 23
0.0
 14
10.0
 24
10.0
 15
10.0
 25
10.0
 16
0.0
 26
0.0
 36
0.0
 17
0.0
 27
0.0
 37
0.0
 42
50.0
 43
0.0
 44
0.0
 45
326.70000000000005
 50
0.0
 51
0.0
 72
100
 90
557088
  1

281
0
 71
0
 74
0
110
0.0
120
0.0
130
0.0
111
1.0
121
0.0
131
0.0
112
0.0
122
1.0
132
0.0
 79
0
146
0.0
  0
VIEWPORT
  5
1F7
330
1F2
100
AcDbEntity
 67
1
  8
VIEWPORTS
100
AcDbViewport
 10
105.0
 20
148.5
 30
0.0
 40
210.0
 41
297.0
 68
1
 69
5
 12
105.0
 22
-148.5
 13
0.0
 23
0.0
 14
10.0
 24
10.0
 15
10.0
 25
10.0
 16
0.0
 26
0.0
 36
0.0
 17
0.0
 27
0.0
 37
0.0
 42
50.0
 43
0.0
 44
0.0
 45
297.0
 50
0.0
 51
0.0
 72
100
 90
0
  1

281
0
 71
0
 74
0
110
0.0
120
0.0
130
0.0
111
1.0
121
0.0
131
0.0
112
0.0
122
1.0
132
0.0
 79
0
146
0.0
  0
ENDBLK
  5
1F4
330
1F2
100
AcDbEntity
  8
0
100
AcDbBlockEnd
  0
BLOCK
  5
1F9
330
1F8
100
AcDbEntity
  8
0
100
AcDbBlockBegin
  2
*Paper_Space1
 70
0
 10
0.0
 20
0.0
 30
0.0
  3
*Paper_Space1
  1

  0
VIEWPORT
  5
1FC
330
1F8
100
AcDbEntity
 67
1
  8
VIEWPORTS
100
AcDbViewport
 10
105.0
 20
148.5
 30
0.0
 40
231.00000000000003
 41
326.70000000000005
 68
1
 69
1
 12
105.0
 22
148.5
 13
0.0
 23
0.0
 14
10.0
 24
10.0
 15
10.0
 25
10.0
 16
0.0
 26
0.0
 36
0.0
 17
0.0
 27
0.0
 37
0.0
 42
50.0
 43
0.0
 44
0.0
 45
326.70000000000005
 50
0.0
 51
0.0
 72
100
 90
557088
  1

281
0
 71
0
 74
0
110
0.0
120
0.0
130
0.0
111
1.0
121
0.0
131
0.0
112
0.0
122
1.0
132
0.0
 79
0
146
0.0
  0
VIEWPORT
  5
1FD
330
1F8
100
AcDbEntity
 67
1
  8
VIEWPORTS
100
AcDbViewport
 10
105.0
 20
148.5
 30
0.0
 40
210.0
 41
297.0
 68
1
 69
7
 12
315.0
 22
-148.5
 13
0.0
 23
0.0
 14
10.0
 24
10.0
 15
10.0
 25
10.0
 16
0.0
 26
0.0
 36
0.0
 17
0.0
 27
0.0
 37
0.0
 42
50.0
 43
0.0
 44
0.0
 45
297.0
 50
0.0
 51
0.0
 72
100
 90
0
  1

281
0
 71
0
 74
0
110
0.0
120
0.0
130
0.0
111
1.0
121
0.0
131
0.0
112
0.0
122
1.0
132
0.0
 79
0
146
0.0
  0
ENDBLK
  5
1FA
330
1F8
100
AcDbEntity
  8
0
100
AcDbBlockEnd
  0
BLOCK
  5
1FF
330
1FE
100
AcDbEntity
  8
0
100
AcDbBlockBegin
  2
*Paper_Space2
 70
0
 10
0.0
 20
0.0
 30
0.0
  3
*Paper_Space2
  1

  0
VIEWPORT
  5
202
330
1FE
100
AcDbEntity
 67
1
  8
VIEWPORTS
100
AcDbViewport
 10
105.0
 20
148.5
 30
0.0
 40
231.00000000000003
 41
326.70000000000005
 68
1
 69
1
 12
105.0
 22
148.5
 13
0.0
 23
0.0
 14
10.0
 24
10.0
 15
10.0
 25
10.0
 16
0.0
 26
0.0
 36
0.0
 17
0.0
 27
0.0
 37
0.0
 42
50.0
 43
0.0
 44
0.0
 45
326.70000000000005
 50
0.0
 51
0.0
 72
100
 90
557088
  1

281
0
 71
0
 74
0
110
0.0
120
0.0
130
0.0
111
1.0
121
0.0
131
0.0
112
0.0
122
1.0
132
0.0
 79
0
146
0.0
  0
VIEWPORT
  5
203
330
1FE
100
AcDbEntity
 67
1
  8
VIEWPORTS
100
AcDbViewport
 10
105.0
 20
148.5
 30
0.0
 40
210.0
 41
297.0
 68
1
 69
9
 12
525.0
 22
-148.5
 13
0.0
 23
0.0
 14
10.0
 24
10.0
 15
10.0
 25
10.0
 16
0.0
 26
0.0
 36
0.0
 17
0.0
 27
0.0
 37
0.0
 42
50.0
 43
0.0
 44
0.0
 45
297.0
 50
0.0
 51
0.0
 72
100
 90
0
  1

281
0
 71
0
 74
0
110
0.0
120
0.0
130
0.0
111
1.0
121
0.0
131
0.0
112
0.0
122
1.0
132
0.0
 79
0
146
0.0
  0
ENDBLK
  5
200
330
1FE
100
AcDbEntity
  8
0
100
AcDbBlockEnd
  0
BLOCK
  5
205
330
204
100
AcDbEntity
  8
0
100
AcDbBlockBegin
  2
*Paper_Space3
 70
0
 10
0.0
 20
0.0
 30
0.0
  3
*Paper_Space3
  1

  0
VIEWPORT
  5
208
330
204
100
AcDbEntity
 67
1
  8
VIEWPORTS
100
AcDbViewport
 10
105.0
 20
148.5
 30
0.0
 40
231.00000000000003
 41
326.70000000000005
 68
1
 69
1
 12
105.0
 22
148.5
 13
0.0
 23
0.0
 14
10.0
 24
10.0
 15
10.0
 25
10.0
 16
0.0
 26
0.0
 36
0.0
 17
0.0
 27
0.0
 37
0.0
 42
50.0
 43
0.0
 44
0.0
 45
326.70000000000005
 50
0.0
 51
0.0
 72
100
 90
557088
  1

281
0
 71
0
 74
0
110
0.0
120
0.0
130
0.0
111
1.0
121
0.0
131
0.0
112
0.0
122
1.0
132
0.0
 79
0
146
0.0
  0
VIEWPORT
  5
209
330
204
100
AcDbEntity
 67
1
  8
VIEWPORTS
100
AcDbViewport
 10
105.0
 20
148.5
 30
0.0
 40
210.0
 41
297.0
 68
1
 69
11
 12
735.0
 22
-148.5
 13
0.0
 23
0.0
 14
10.0
 24
10.0
 15
10.0
 25
10.0
 16
0.0
 26
0.0
 36
0.0
 17
0.0
 27
0.0
 37
0.0
 42
50.0
 43
0.0
 44
0.0
 45
297.0
 50
0.0
 51
0.0
 72
100
 90
0
  1

281
0
 71
0
 74
0
110
0.0
120
0.0
130
0.0
111
1.0
121
0.0
131
0.0
112
0.0
122
1.0
132
0.0
 79
0
146
0.0
  0
ENDBLK
  5
206
330
204
100
AcDbEntity
  8
0
100
AcDbBlockEnd
  0
BLOCK
  5
20B
330
20A
100
AcDbEntity
  8
0
100
AcDbBlockBegin
  2
*Paper_Space4
 70
0
 10
0.0
 20
0.0
 30
0.0
  3
*Paper_Space4
  1

  0
VIEWPORT
  5
20E
330
20A
100
AcDbEntity
 67
1
  8
VIEWPORTS
100
AcDbViewport
 10
105.0
 20
148.5
 30
0.0
 40
231.00000000000003
 41
326.70000000000005
 68
1
 69
1
 12
105.0
 22
148.5
 13
0.0
 23
0.0
 14
10.0
 24
10.0
 15
10.0
 25
10.0
 16
0.0
 26
0.0
 36
0.0
 17
0.0
 27
0.0
 37
0.0
 42
50.0
 43
0.0
 44
0.0
 45
326.70000000000005
 50
0.0
 51
0.0
 72
100
 90
557088
  1

281
0
 71
0
 74
0
110
0.0
120
0.0
130
0.0
111
1.0
121
0.0
131
0.0
112
0.0
122
1.0
132
0.0
 79
0
146
0.0
  0
VIEWPORT
  5
20F
330
20A
100
AcDbEntity
 67
1
  8
VIEWPORTS
100
AcDbViewport
 10
105.0
 20
148.5
 30
0.0
 40
210.0
 41
297.0
 68
1
 69
13
 12
945.0
 22
-148.5
 13
0.0
 23
0.0
 14
10.0
 24
10.0
 15
10.0
 25
10.0
 16
0.0
 26
0.0
 36
0.0
 17
0.0
 27
0.0
 37
0.0
 42
50.0
 43
0.0
 44
0.0
 45
297.0
 50
0.0
 51
0.0
 72
100
 90
0
  1

281
0
 71
0
 74
0
110
0.0
120
0.0
130
0.0
111
1.0
121
0.0
131
0.0
112
0.0
122
1.0
132
0.0
 79
0
146
0.0
  0
ENDBLK
  5
20C
330
20A
100
AcDbEntity
  8
0
100
AcDbBlockEnd
  0
BLOCK
  5
211
330
210
100
AcDbEntity
  8
0
100
AcDbBlockBegin
  2
*Paper_Space5
 70
0
 10
0.0
 20
0.0
 30
0.0
  3
*Paper_Space5
  1

  0
VIEWPORT
  5
214
330
210
100
AcDbEntity
 67
1
  8
VIEWPORTS
100
AcDbViewport
 10
105.0
 20
148.5
 30
0.0
 40
231.00000000000003
 41
326.70000000000005
 68
1
 69
1
 12
105.0
 22
148.5
 13
0.0
 23
0.0
 14
10.0
 24
10.0
 15
10.0
 25
10.0
 16
0.0
 26
0.0
 36
0.0
 17
0.0
 27
0.0
 37
0.0
 42
50.0
 43
0.0
 44
0.0
 45
326.70000000000005
 50
0.0
 51
0.0
 72
100
 90
557088
  1

281
0
 71
0
 74
0
110
0.0
120
0.0
130
0.0
111
1.0
121
0.0
131
0.0
112
0.0
122
1.0
132
0.0
 79
0
146
0.0
  0
VIEWPORT
  5
215
330
210
100
AcDbEntity
 67
1
  8
VIEWPORTS
100
AcDbViewport
 10
105.0
 20
148.5
 30
0.0
 40
210.0
 41
297.0
 68
1
 69
15
 12
1155.0
 22
-148.5
 13
0.0
 23
0.0
 14
10.0
 24
10.0
 15
10.0
 25
10.0
 16
0.0
 26
0.0
 36
0.0
 17
0.0
 27
0.0
 37
0.0
 42
50.0
 43
0.0
 44
0.0
 45
297.0
 50
0.0
 51
0.0
 72
100
 90
0
  1

281
0
 71
0
 74
0
110
0.0
120
0.0
130
0.0
111
1.0
121
0.0
131
0.0
112
0.0
122
1.0
132
0.0
 79
0
146
0.0
  0
ENDBLK
  5
212
330
210
100
AcDbEntity
  8
0
100
AcDbBlockEnd
  0
BLOCK
  5
217
330
216
100
AcDbEntity
  8
0
100
AcDbBlockBegin
  2
*Paper_Space6
 70
0
 10
0.0
 20
0.0
 30
0.0
  3
*Paper_Space6
  1

  0
VIEWPORT
  5
21A
330
216
100
AcDbEntity
 67
1
  8
VIEWPORTS
100
AcDbViewport
 10
105.0
 20
148.5
 30
0.0
 40
231.00000000000003
 41
326.70000000000005
 68
1
 69
1
 12
105.0
 22
148.5
 13
0.0
 23
0.0
 14
10.0
 24
10.0
 15
10.0
 25
10.0
 16
0.0
 26
0.0
 36
0.0
 17
0.0
 27
0.0
 37
0.0
 42
50.0
 43
0.0
 44
0.0
 45
326.70000000000005
 50
0.0
 51
0.0
 72
100
 90
557088
  1

281
0
 71
0
 74
0
110
0.0
120
0.0
130
0.0
111
1.0
121
0.0
131
0.0
112
0.0
122
1.0
132
0.0
 79
0
146
0.0
  0
VIEWPORT
  5
21B
330
216
100
AcDbEntity
 67
1
  8
VIEWPORTS
100
AcDbViewport
 10
105.0
 20
148.5
 30
0.0
 40
210.0
 41
297.0
 68
1
 69
17
 12
1365.0
 22
-148.5
 13
0.0
 23
0.0
 14
10.0
 24
10.0
 15
10.0
 25
10.0
 16
0.0
 26
0.0
 36
0.0
 17
0.0
 27
0.0
 37
0.0
 42
50.0
 43
0.0
 44
0.0
 45
297.0
 50
0.0
 51
0.0
 72
100
 90
0
  1

281
0
 71
0
 74
0
110
0.0
120
0.0
130
0.0
111
1.0
121
0.0
131
0.0
112
0.0
122
1.0
132
0.0
 79
0
146
0.0
  0
ENDBLK
  5
218
330
216
100
AcDbEntity
  8
0
100
AcDbBlockEnd
  0
BLOCK
  5
21D
330
21C
100
AcDbEntity
  8
0
100
AcDbBlockBegin
  2
*Paper_Space7
 70
0
 10
0.0
 20
0.0
 30
0.0
  3
*Paper_Space7
  1

  0
VIEWPORT
  5
220
330
21C
100
AcDbEntity
 67
1
  8
VIEWPORTS
100
AcDbViewport
 10
105.0
 20
148.5
 30
0.0
 40
231.00000000000003
 41
326.70000000000005
 68
1
 69
1
 12
105.0
 22
148.5
 13
0.0
 23
0.0
 14
10.0
 24
10.0
 15
10.0
 25
10.0
 16
0.0
 26
0.0
 36
0.0
 17
0.0
 27
0.0
 37
0.0
 42
50.0
 43
0.0
 44
0.0
 45
326.70000000000005
 50
0.0
 51
0.0
 72
100
 90
557088
  1

281
0
 71
0
 74
0
110
0.0
120
0.0
130
0.0
111
1.0
121
0.0
131
0.0
112
0.0
122
1.0
132
0.0
 79
0
146
0.0
  0
VIEWPORT
  5
221
330
21C
100
AcDbEntity
 67
1
  8
VIEWPORTS
100
AcDbViewport
 10
105.0
 20
148.5
 30
0.0
 40
210.0
 41
297.0
 68
1
 69
19
 12
1575.0
 22
-148.5
 13
0.0
 23
0.0
 14
10.0
 24
10.0
 15
10.0
 25
10.0
 16
0.0
 26
0.0
 36
0.0
 17
0.0
 27
0.0
 37
0.0
 42
50.0
 43
0.0
 44
0.0
 45
297.0
 50
0.0
 51
0.0
 72
100
 90
0
  1

281
0
 71
0
 74
0
110
0.0
120
0.0
130
0.0
111
1.0
121
0.0
131
0.0
112
0.0
122
1.0
132
0.0
 79
0
146
0.0
  0
ENDBLK
  5
21E
330
21C
100
AcDbEntity
  8
0
100
AcDbBlockEnd
  0
BLOCK
  5
223
330
222
100
AcDbEntity
  8
0
100
AcDbBlockBegin
  2
*Paper_Space8
 70
0
 10
0.0
 20
0.0
 30
0.0
  3
*Paper_Space8
  1

  0
VIEWPORT
  5
226
330
222
100
AcDbEntity
 67
1
  8
VIEWPORTS
100
AcDbViewport
 10
105.0
 20
148.5
 30
0.0
 40
231.00000000000003
 41
326.70000000000005
 68
1
 69
1
 12
105.0
 22
148.5
 13
0.0
 23
0.0
 14
10.0
 24
10.0
 15
10.0
 25
10.0
 16
0.0
 26
0.0
 36
0.0
 17
0.0
 27
0.0
 37
0.0
 42
50.0
 43
0.0
 44
0.0
 45
326.70000000000005
 50
0.0
 51
0.0
 72
100
 90
557088
  1

281
0
 71
0
 74
0
110
0.0
120
0.0
130
0.0
111
1.0
121
0.0
131
0.0
112
0.0
122
1.0
132
0.0
 79
0
146
0.0
  0
VIEWPORT
  5
227
330
222
100
AcDbEntity
 67
1
  8
VIEWPORTS
100
AcDbViewport
 10
105.0
 20
148.5
 30
0.0
 40
210.0
 41
297.0
 68
1
 69
21
 12
1785.0
 22
-148.5
 13
0.0
 23
0.0
 14
10.0
 24
10.0
 15
10.0
 25
10.0
 16
0.0
 26
0.0
 36
0.0
 17
0.0
 27
0.0
 37
0.0
 42
50.0
 43
0.0
 44
0.0
 45
297.0
 50
0.0
 51
0.0
 72
100
 90
0
  1

281
0
 71
0
 74
0
110
0.0
120
0.0
130
0.0
111
1.0
121
0.0
131
0.0
112
0.0
122
1.0
132
0.0
 79
0
146
0.0
  0
ENDBLK
  5
224
330
222
100
AcDbEntity
  8
0
100
AcDbBlockEnd
  0
BLOCK
  5
229
330
228
100
AcDbEntity
  8
0
100
AcDbBlockBegin
  2
*Paper_Space9
 70
0
 10
0.0
 20
0.0
 30
0.0
  3
*Paper_Space9
  1

  0
VIEWPORT
  5
22C
330
228
100
AcDbEntity
 67
1
  8
VIEWPORTS
100
AcDbViewport
 10
105.0
 20
148.5
 30
0.0
 40
231.00000000000003
 41
326.70000000000005
 68
1
 69
1
 12
105.0
 22
148.5
 13
0.0
 23
0.0
 14
10.0
 24
10.0
 15
10.0
 25
10.0
 16
0.0
 26
0.0
 36
0.0
 17
0.0
 27
0.0
 37
0.0
 42
50.0
 43
0.0
 44
0.0
 45
326.70000000000005
 50
0.0
 51
0.0
 72
100
 90
557088
  1

281
0
 71
0
 74
0
110
0.0
120
0.0
130
0.0
111
1.0
121
0.0
131
0.0
112
0.0
122
1.0
132
0.0
 79
0
146
0.0
  0
VIEWPORT
  5
22D
330
228
100
AcDbEntity
 67
1
  8
VIEWPORTS
100
AcDbViewport
 10
105.0
 20
148.5
 30
0.0
 40
210.0
 41
297.0
 68
1
 69
23
 12
1995.0
 22
-148.5
 13
0.0
 23
0.0
 14
10.0
 24
10.0
 15
10.0
 25
10.0
 16
0.0
 26
0.0
 36
0.0
 17
0.0
 27
0.0
 37
0.0
 42
50.0
 43
0.0
 44
0.0
 45
297.0
 50
0.0
 51
0.0
 72
100
 90
0
  1

281
0
 71
0
 74
0
110
0.0
120
0.0
130
0.0
111
1.0
121
0.0
131
0.0
112
0.0
122
1.0
132
0.0
 79
0
146
0.0
  0
ENDBLK
  5
22A
330
228
100
AcDbEntity
  8
0
100
AcDbBlockEnd
  0
BLOCK
  5
22F
330
22E
100
AcDbEntity
  8
0
100
AcDbBlockBegin
  2
*Paper_Space10
 70
0
 10
0.0
 20
0.0
 30
0.0
  3
*Paper_Space10
  1

  0
VIEWPORT
  5
232
330
22E
100
AcDbEntity
 67
1
  8
VIEWPORTS
100
AcDbViewport
 10
105.0
 20
148.5
 30
0.0
 40
231.00000000000003
 41
326.70000000000005
 68
1
 69
1
 12
105.0
 22
148.5
 13
0.0
 23
0.0
 14
10.0
 24
10.0
 15
10.0
 25
10.0
 16
0.0
 26
0.0
 36
0.0
 17
0.0
 27
0.0
 37
0.0
 42
50.0
 43
0.0
 44
0.0
 45
326.70000000000005
 50
0.0
 51
0.0
 72
100
 90
557088
  1

281
0
 71
0
 74
0
110
0.0
120
0.0
130
0.0
111
1.0
121
0.0
131
0.0
112
0.0
122
1.0
132
0.0
 79
0
146
0.0
  0
VIEWPORT
  5
233
330
22E
100
AcDbEntity
 67
1
  8
VIEWPORTS
100
AcDbViewport
 10
105.0
 20
148.5
 30
0.0
 40
210.0
 41
297.0
 68
1
 69
25
 12
105.0
 22
-445.5
 13
0.0
 23
0.0
 14
10.0
 24
10.0
 15
10.0
 25
10.0
 16
0.0
 26
0.0
 36
0.0
 17
0.0
 27
0.0
 37
0.0
 42
50.0
 43
0.0
 44
0.0
 45
297.0
 50
0.0
 51
0.0
 72
100
 90
0
  1

281
0
 71
0
 74
0
110
0.0
120
0.0
130
0.0
111
1.0
121
0.0
131
0.0
112
0.0
122
1.0
132
0.0
 79
0
146
0.0
  0
ENDBLK
  5
230
330
22E
100
AcDbEntity
  8
0
100
AcDbBlockEnd
  0
BLOCK
  5
235
330
234
100
AcDbEntity
  8
0
100
AcDbBlockBegin
  2
*Paper_Space11
 70
0
 10
0.0
 20
0.0
 30
0.0
  3
*Paper_Space11
  1

  0
VIEWPORT
  5
238
330
234
100
AcDbEntity
 67
1
  8
VIEWPORTS
100
AcDbViewport
 10
105.0
 20
148.5
 30
0.0
 40
231.00000000000003
 41
326.70000000000005
 68
1
 69
1
 12
105.0
 22
148.5
 13
0.0
 23
0.0
 14
10.0
 24
10.0
 15
10.0
 25
10.0
 16
0.0
 26
0.0
 36
0.0
 17
0.0
 27
0.0
 37
0.0
 42
50.0
 43
0.0
 44
0.0
 45
326.70000000000005
 50
0.0
 51
0.0
 72
100
 90
557088
  1

281
0
 71
0
 74
0
110
0.0
120
0.0
130
0.0
111
1.0
121
0.0
131
0.0
112
0.0
122
1.0
132
0.0
 79
0
146
0.0
  0
VIEWPORT
  5
239
330
234
100
AcDbEntity
 67
1
  8
VIEWPORTS
100
AcDbViewport
 10
105.0
 20
148.5
 30
0.0
 40
210.0
 41
297.0
 68
1
 69
27
 12
315.0
 22
-445.5
 13
0.0
 23
0.0
 14
10.0
 24
10.0
 15
10.0
 25
10.0
 16
0.0
 26
0.0
 36
0.0
 17
0.0
 27
0.0
 37
0.0
 42
50.0
 43
0.0
 44
0.0
 45
297.0
 50
0.0
 51
0.0
 72
100
 90
0
  1

281
0
 71
0
 74
0
110
0.0
120
0.0
130
0.0
111
1.0
121
0.0
131
0.0
112
0.0
122
1.0
132
0.0
 79
0
146
0.0
  0
ENDBLK
  5
236
330
234
100
AcDbEntity
  8
0
100
AcDbBlockEnd
  0
BLOCK
  5
23B
330
23A
100
AcDbEntity
  8
0
100
AcDbBlockBegin
  2
*Paper_Space12
 70
0
 10
0.0
 20
0.0
 30
0.0
  3
*Paper_Space12
  1

  0
VIEWPORT
  5
23E
330
23A
100
AcDbEntity
 67
1
  8
VIEWPORTS
100
AcDbViewport
 10
105.0
 20
148.5
 30
0.0
 40
231.00000000000003
 41
326.70000000000005
 68
1
 69
1
 12
105.0
 22
148.5
 13
0.0
 23
0.0
 14
10.0
 24
10.0
 15
10.0
 25
10.0
 16
0.0
 26
0.0
 36
0.0
 17
0.0
 27
0.0
 37
0.0
 42
50.0
 43
0.0
 44
0.0
 45
326.70000000000005
 50
0.0
 51
0.0
 72
100
 90
557088
  1

281
0
 71
0
 74
0
110
0.0
120
0.0
130
0.0
111
1.0
121
0.0
131
0.0
112
0.0
122
1.0
132
0.0
 79
0
146
0.0
  0
VIEWPORT
  5
23F
330
23A
100
AcDbEntity
 67
1
  8
VIEWPORTS
100
AcDbViewport
 10
105.0
 20
148.5
 30
0.0
 40
210.0
 41
297.0
 68
1
 69
29
 12
525.0
 22
-445.5
 13
0.0
 23
0.0
 14
10.0
 24
10.0
 15
10.0
 25
10.0
 16
0.0
 26
0.0
 36
0.0
 17
0.0
 27
0.0
 37
0.0
 42
50.0
 43
0.0
 44
0.0
 45
297.0
 50
0.0
 51
0.0
 72
100
 90
0
  1

281
0
 71
0
 74
0
110
0.0
120
0.0
130
0.0
111
1.0
121
0.0
131
0.0
112
0.0
122
1.0
132
0.0
 79
0
146
0.0
  0
ENDBLK
  5
23C
330
23A
100
AcDbEntity
  8
0
100
AcDbBlockEnd
  0
BLOCK
  5
241
330
240
100
AcDbEntity
  8
0
100
AcDbBlockBegin
  2
*Paper_Space13
 70
0
 10
0.0
 20
0.0
 30
0.0
  3
*Paper_Space13
  1

  0
VIEWPORT
  5
244
330
240
100
AcDbEntity
 67
1
  8
VIEWPORTS
100
AcDbViewport
 10
105.0
 20
148.5
 30
0.0
 40
231.00000000000003
 41
326.70000000000005
 68
1
 69
1
 12
105.0
 22
148.5
 13
0.0
 23
0.0
 14
10.0
 24
10.0
 15
10.0
 25
10.0
 16
0.0
 26
0.0
 36
0.0
 17
0.0
 27
0.0
 37
0.0
 42
50.0
 43
0.0
 44
0.0
 45
326.70000000000005
 50
0.0
 51
0.0
 72
100
 90
557088
  1

281
0
 71
0
 74
0
110
0.0
120
0.0
130
0.0
111
1.0
121
0.0
131
0.0
112
0.0
122
1.0
132
0.0
 79
0
146
0.0
  0
VIEWPORT
  5
245
330
240
100
AcDbEntity
 67
1
  8
VIEWPORTS
100
AcDbViewport
 10
105.0
 20
148.5
 30
0.0
 40
210.0
 41
297.0
 68
1
 69
31
 12
735.0
 22
-445.5
 13
0.0
 23
0.0
 14
10.0
 24
10.0
 15
10.0
 25
10.0
 16
0.0
 26
0.0
 36
0.0
 17
0.0
 27
0.0
 37
0.0
 42
50.0
 43
0.0
 44
0.0
 45
297.0
 50
0.0
 51
0.0
 72
100
 90
0
  1

281
0
 71
0
 74
0
110
0.0
120
0.0
130
0.0
111
1.0
121
0.0
131
0.0
112
0.0
122
1.0
132
0.0
 79
0
146
0.0
  0
ENDBLK
  5
242
330
240
100
AcDbEntity
  8
0
100
AcDbBlockEnd
  0
BLOCK
  5
247
330
246
100
AcDbEntity
  8
0
100
AcDbBlockBegin
  2
*Paper_Space14
 70
0
 10
0.0
 20
0.0
 30
0.0
  3
*Paper_Space14
  1

  0
VIEWPORT
  5
24A
330
246
100
AcDbEntity
 67
1
  8
VIEWPORTS
100
AcDbViewport
 10
105.0
 20
148.5
 30
0.0
 40
231.00000000000003
 41
326.70000000000005
 68
1
 69
1
 12
105.0
 22
148.5
 13
0.0
 23
0.0
 14
10.0
 24
10.0
 15
10.0
 25
10.0
 16
0.0
 26
0.0
 36
0.0
 17
0.0
 27
0.0
 37
0.0
 42
50.0
 43
0.0
 44
0.0
 45
326.70000000000005
 50
0.0
 51
0.0
 72
100
 90
557088
  1

281
0
 71
0
 74
0
110
0.0
120
0.0
130
0.0
111
1.0
121
0.0
131
0.0
112
0.0
122
1.0
132
0.0
 79
0
146
0.0
  0
VIEWPORT
  5
24B
330
246
100
AcDbEntity
 67
1
  8
VIEWPORTS
100
AcDbViewport
 10
105.0
 20
148.5
 30
0.0
 40
210.0
 41
297.0
 68
1
 69
33
 12
945.0
 22
-445.5
 13
0.0
 23
0.0
 14
10.0
 24
10.0
 15
10.0
 25
10.0
 16
0.0
 26
0.0
 36
0.0
 17
0.0
 27
0.0
 37
0.0
 42
50.0
 43
0.0
 44
0.0
 45
297.0
 50
0.0
 51
0.0
 72
100
 90
0
  1

281
0
 71
0
 74
0
110
0.0
120
0.0
130
0.0
111
1.0
121
0.0
131
0.0
112
0.0
122
1.0
132
0.0
 79
0
146
0.0
  0
ENDBLK
  5
248
330
246
100
AcDbEntity
  8
0
100
AcDbBlockEnd
  0
BLOCK
  5
24D
330
24C
100
AcDbEntity
  8
0
100
AcDbBlockBegin
  2
*Paper_Space15
 70
0
 10
0.0
 20
0.0
 30
0.0
  3
*Paper_Space15
  1

  0
VIEWPORT
  5
250
330
24C
100
AcDbEntity
 67
1
  8
VIEWPORTS
100
AcDbViewport
 10
105.0
 20
148.5
 30
0.0
 40
231.00000000000003
 41
326.70000000000005
 68
1
 69
1
 12
105.0
 22
148.5
 13
0.0
 23
0.0
 14
10.0
 24
10.0
 15
10.0
 25
10.0
 16
0.0
 26
0.0
 36
0.0
 17
0.0
 27
0.0
 37
0.0
 42
50.0
 43
0.0
 44
0.0
 45
326.70000000000005
 50
0.0
 51
0.0
 72
100
 90
557088
  1

281
0
 71
0
 74
0
110
0.0
120
0.0
130
0.0
111
1.0
121
0.0
131
0.0
112
0.0
122
1.0
132
0.0
 79
0
146
0.0
  0
VIEWPORT
  5
251
330
24C
100
AcDbEntity
 67
1
  8
VIEWPORTS
100
AcDbViewport
 10
105.0
 20
148.5
 30
0.0
 40
210.0
 41
297.0
 68
1
 69
35
 12
1155.0
 22
-445.5
 13
0.0
 23
0.0
 14
10.0
 24
10.0
 15
10.0
 25
10.0
 16
0.0
 26
0.0
 36
0.0
 17
0.0
 27
0.0
 37
0.0
 42
50.0
 43
0.0
 44
0.0
 45
297.0
 50
0.0
 51
0.0
 72
100
 90
0
  1

281
0
 71
0
 74
0
110
0.0
120
0.0
130
0.0
111
1.0
121
0.0
131
0.0
112
0.0
122
1.0
132
0.0
 79
0
146
0.0
  0
ENDBLK
  5
24E
330
24C
100
AcDbEntity
  8
0
100
AcDbBlockEnd
  0
BLOCK
  5
253
330
252
100
AcDbEntity
  8
0
100
AcDbBlockBegin
  2
*Paper_Space16
 70
0
 10
0.0
 20
0.0
 30
0.0
  3
*Paper_Space16
  1

  0
VIEWPORT
  5
256
330
252
100
AcDbEntity
 67
1
  8
VIEWPORTS
100
AcDbViewport
 10
105.0
 20
148.5
 30
0.0
 40
231.00000000000003
 41
326.70000000000005
 68
1
 69
1
 12
105.0
 22
148.5
 13
0.0
 23
0.0
 14
10.0
 24
10.0
 15
10.0
 25
10.0
 16
0.0
 26
0.0
 36
0.0
 17
0.0
 27
0.0
 37
0.0
 42
50.0
 43
0.0
 44
0.0
 45
326.70000000000005
 50
0.0
 51
0.0
 72
100
 90
557088
  1

281
0
 71
0
 74
0
110
0.0
120
0.0
130
0.0
111
1.0
121
0.0
131
0.0
112
0.0
122
1.0
132
0.0
 79
0
146
0.0
  0
VIEWPORT
  5
257
330
252
100
AcDbEntity
 67
1
  8
VIEWPORTS
100
AcDbViewport
 10
105.0
 20
148.5
 30
0.0
 40
210.0
 41
297.0
 68
1
 69
37
 12
1365.0
 22
-445.5
 13
0.0
 23
0.0
 14
10.0
 24
10.0
 15
10.0
 25
10.0
 16
0.0
 26
0.0
 36
0.0
 17
0.0
 27
0.0
 37
0.0
 42
50.0
 43
0.0
 44
0.0
 45
297.0
 50
0.0
 51
0.0
 72
100
 90
0
  1

281
0
 71
0
 74
0
110
0.0
120
0.0
130
0.0
111
1.0
121
0.0
131
0.0
112
0.0
122
1.0
132
0.0
 79
0
146
0.0
  0
ENDBLK
  5
254
330
252
100
AcDbEntity
  8
0
100
AcDbBlockEnd
  0
BLOCK
  5
259
330
258
100
AcDbEntity
  8
0
100
AcDbBlockBegin
  2
*Paper_Space17
 70
0
 10
0.0
 20
0.0
 30
0.0
  3
*Paper_Space17
  1

  0
VIEWPORT
  5
25C
330
258
100
AcDbEntity
 67
1
  8
VIEWPORTS
100
AcDbViewport
 10
105.0
 20
148.5
 30
0.0
 40
231.00000000000003
 41
326.70000000000005
 68
1
 69
1
 12
105.0
 22
148.5
 13
0.0
 23
0.0
 14
10.0
 24
10.0
 15
10.0
 25
10.0
 16
0.0
 26
0.0
 36
0.0
 17
0.0
 27
0.0
 37
0.0
 42
50.0
 43
0.0
 44
0.0
 45
326.70000000000005
 50
0.0
 51
0.0
 72
100
 90
557088
  1

281
0
 71
0
 74
0
110
0.0
120
0.0
130
0.0
111
1.0
121
0.0
131
0.0
112
0.0
122
1.0
132
0.0
 79
0
146
0.0
  0
VIEWPORT
  5
25D
330
258
100
AcDbEntity
 67
1
  8
VIEWPORTS
100
AcDbViewport
 10
105.0
 20
148.5
 30
0.0
 40
210.0
 41
297.0
 68
1
 69
39
 12
1575.0
 22
-445.5
 13
0.0
 23
0.0
 14
10.0
 24
10.0
 15
10.0
 25
10.0
 16
0.0
 26
0.0
 36
0.0
 17
0.0
 27
0.0
 37
0.0
 42
50.0
 43
0.0
 44
0.0
 45
297.0
 50
0.0
 51
0.0
 72
100
 90
0
  1

281
0
 71
0
 74
0
110
0.0
120
0.0
130
0.0
111
1.0
121
0.0
131
0.0
112
0.0
122
1.0
132
0.0
 79
0
146
0.0
  0
ENDBLK
  5
25A
330
258
100
AcDbEntity
  8
0
100
AcDbBlockEnd
  0
BLOCK
  5
25F
330
25E
100
AcDbEntity
  8
0
100
AcDbBlockBegin
  2
*Paper_Space18
 70
0
 10
0.0
 20
0.0
 30
0.0
  3
*Paper_Space18
  1

  0
VIEWPORT
  5
262
330
25E
100
AcDbEntity
 67
1
  8
VIEWPORTS
100
AcDbViewport
 10
105.0
 20
148.5
 30
0.0
 40
231.00000000000003
 41
326.70000000000005
 68
1
 69
1
 12
105.0
 22
148.5
 13
0.0
 23
0.0
 14
10.0
 24
10.0
 15
10.0
 25
10.0
 16
0.0
 26
0.0
 36
0.0
 17
0.0
 27
0.0
 37
0.0
 42
50.0
 43
0.0
 44
0.0
 45
326.70000000000005
 50
0.0
 51
0.0
 72
100
 90
557088
  1

281
0
 71
0
 74
0
110
0.0
120
0.0
130
0.0
111
1.0
121
0.0
131
0.0
112
0.0
122
1.0
132
0.0
 79
0
146
0.0
  0
VIEWPORT
  5
263
330
25E
100
AcDbEntity
 67
1
  8
VIEWPORTS
100
AcDbViewport
 10
105.0
 20
148.5
 30
0.0
 40
210.0
 41
297.0
 68
1
 69
41
 12
1785.0
 22
-445.5
 13
0.0
 23
0.0
 14
10.0
 24
10.0
 15
10.0
 25
10.0
 16
0.0
 26
0.0
 36
0.0
 17
0.0
 27
0.0
 37
0.0
 42
50.0
 43
0.0
 44
0.0
 45
297.0
 50
0.0
 51
0.0
 72
100
 90
0
  1

281
0
 71
0
 74
0
110
0.0
120
0.0
130
0.0
111
1.0
121
0.0
131
0.0
112
0.0
122
1.0
132
0.0
 79
0
146
0.0
  0
ENDBLK
  5
260
330
25E
100
AcDbEntity
  8
0
100
AcDbBlockEnd
  0
BLOCK
  5
265
330
264
100
AcDbEntity
  8
0
100
AcDbBlockBegin
  2
*Paper_Space19
 70
0
 10
0.0
 20
0.0
 30
0.0
  3
*Paper_Space19
  1

  0
VIEWPORT
  5
268
330
264
100
AcDbEntity
 67
1
  8
VIEWPORTS
100
AcDbViewport
 10
105.0
 20
148.5
 30
0.0
 40
231.00000000000003
 41
326.70000000000005
 68
1
 69
1
 12
105.0
 22
148.5
 13
0.0
 23
0.0
 14
10.0
 24
10.0
 15
10.0
 25
10.0
 16
0.0
 26
0.0
 36
0.0
 17
0.0
 27
0.0
 37
0.0
 42
50.0
 43
0.0
 44
0.0
 45
326.70000000000005
 50
0.0
 51
0.0
 72
100
 90
557088
  1

281
0
 71
0
 74
0
110
0.0
120
0.0
130
0.0
111
1.0
121
0.0
131
0.0
112
0.0
122
1.0
132
0.0
 79
0
146
0.0
  0
VIEWPORT
  5
269
330
264
100
AcDbEntity
 67
1
  8
VIEWPORTS
100
AcDbViewport
 10
105.0
 20
148.5
 30
0.0
 40
210.0
 41
297.0
 68
1
 69
43
 12
1995.0
 22
-445.5
 13
0.0
 23
0.0
 14
10.0
 24
10.0
 15
10.0
 25
10.0
 16
0.0
 26
0.0
 36
0.0
 17
0.0
 27
0.0
 37
0.0
 42
50.0
 43
0.0
 44
0.0
 45
297.0
 50
0.0
 51
0.0
 72
100
 90
0
  1

281
0
 71
0
 74
0
110
0.0
120
0.0
130
0.0
111
1.0
121
0.0
131
0.0
112
0.0
122
1.0
132
0.0
 79
0
146
0.0
  0
ENDBLK
  5
266
330
264
100
AcDbEntity
  8
0
100
AcDbBlockEnd
  0
BLOCK
  5
26B
330
26A
100
AcDbEntity
  8
0
100
AcDbBlockBegin
  2
*Paper_Space20
 70
0
 10
0.0
 20
0.0
 30
0.0
  3
*Paper_Space20
  1

  0
VIEWPORT
  5
26E
330
26A
100
AcDbEntity
 67
1
  8
VIEWPORTS
100
AcDbViewport
 10
105.0
 20
148.5
 30
0.0
 40
231.00000000000003
 41
326.70000000000005
 68
1
 69
1
 12
105.0
 22
148.5
 13
0.0
 23
0.0
 14
10.0
 24
10.0
 15
10.0
 25
10.0
 16
0.0
 26
0.0
 36
0.0
 17
0.0
 27
0.0
 37
0.0
 42
50.0
 43
0.0
 44
0.0
 45
326.70000000000005
 50
0.0
 51
0.0
 72
100
 90
557088
  1

281
0
 71
0
 74
0
110
0.0
120
0.0
130
0.0
111
1.0
121
0.0
131
0.0
112
0.0
122
1.0
132
0.0
 79
0
146
0.0
  0
VIEWPORT
  5
26F
330
26A
100
AcDbEntity
 67
1
  8
VIEWPORTS
100
AcDbViewport
 10
105.0
 20
148.5
 30
0.0
 40
210.0
 41
297.0
 68
1
 69
45
 12
105.0
 22
-742.5
 13
0.0
 23
0.0
 14
10.0
 24
10.0
 15
10.0
 25
10.0
 16
0.0
 26
0.0
 36
0.0
 17
0.0
 27
0.0
 37
0.0
 42
50.0
 43
0.0
 44
0.0
 45
297.0
 50
0.0
 51
0.0
 72
100
 90
0
  1

281
0
 71
0
 74
0
110
0.0
120
0.0
130
0.0
111
1.0
121
0.0
131
0.0
112
0.0
122
1.0
132
0.0
 79
0
146
0.0
  0
ENDBLK
  5
26C
330
26A
100
AcDbEntity
  8
0
100
AcDbBlockEnd
  0
BLOCK
  5
271
330
270
100
AcDbEntity
  8
0
100
AcDbBlockBegin
  2
*Paper_Space21
 70
0
 10
0.0
 20
0.0
 30
0.0
  3
*Paper_Space21
  1

  0
VIEWPORT
  5
274
330
270
100
AcDbEntity
 67
1
  8
VIEWPORTS
100
AcDbViewport
 10
105.0
 20
148.5
 30
0.0
 40
231.00000000000003
 41
326.70000000000005
 68
1
 69
1
 12
105.0
 22
148.5
 13
0.0
 23
0.0
 14
10.0
 24
10.0
 15
10.0
 25
10.0
 16
0.0
 26
0.0
 36
0.0
 17
0.0
 27
0.0
 37
0.0
 42
50.0
 43
0.0
 44
0.0
 45
326.70000000000005
 50
0.0
 51
0.0
 72
100
 90
557088
  1

281
0
 71
0
 74
0
110
0.0
120
0.0
130
0.0
111
1.0
121
0.0
131
0.0
112
0.0
122
1.0
132
0.0
 79
0
146
0.0
  0
VIEWPORT
  5
275
330
270
100
AcDbEntity
 67
1
  8
VIEWPORTS
100
AcDbViewport
 10
105.0
 20
148.5
 30
0.0
 40
210.0
 41
297.0
 68
1
 69
47
 12
315.0
 22
-742.5
 13
0.0
 23
0.0
 14
10.0
 24
10.0
 15
10.0
 25
10.0
 16
0.0
 26
0.0
 36
0.0
 17
0.0
 27
0.0
 37
0.0
 42
50.0
 43
0.0
 44
0.0
 45
297.0
 50
0.0
 51
0.0
 72
100
 90
0
  1

281
0
 71
0
 74
0
110
0.0
120
0.0
130
0.0
111
1.0
121
0.0
131
0.0
112
0.0
122
1.0
132
0.0
 79
0
146
0.0
  0
ENDBLK
  5
272
330
270
100
AcDbEntity
  8
0
100
AcDbBlockEnd
  0
BLOCK
  5
277
330
276
100
AcDbEntity
  8
0
100
AcDbBlockBegin
  2
*Paper_Space22
 70
0
 10
0.0
 20
0.0
 30
0.0
  3
*Paper_Space22
  1

  0
VIEWPORT
  5
27A
330
276
100
AcDbEntity
 67
1
  8
VIEWPORTS
100
AcDbViewport
 10
105.0
 20
148.5
 30
0.0
 40
231.00000000000003
 41
326.70000000000005
 68
1
 69
1
 12
105.0
 22
148.5
 13
0.0
 23
0.0
 14
10.0
 24
10.0
 15
10.0
 25
10.0
 16
0.0
 26
0.0
 36
0.0
 17
0.0
 27
0.0
 37
0.0
 42
50.0
 43
0.0
 44
0.0
 45
326.70000000000005
 50
0.0
 51
0.0
 72
100
 90
557088
  1

281
0
 71
0
 74
0
110
0.0
120
0.0
130
0.0
111
1.0
121
0.0
131
0.0
112
0.0
122
1.0
132
0.0
 79
0
146
0.0
  0
VIEWPORT
  5
27B
330
276
100
AcDbEntity
 67
1
  8
VIEWPORTS
100
AcDbViewport
 10
105.0
 20
148.5
 30
0.0
 40
210.0
 41
297.0
 68
1
 69
49
 12
525.0
 22
-742.5
 13
0.0
 23
0.0
 14
10.0
 24
10.0
 15
10.0
 25
10.0
 16
0.0
 26
0.0
 36
0.0
 17
0.0
 27
0.0
 37
0.0
 42
50.0
 43
0.0
 44
0.0
 45
297.0
 50
0.0
 51
0.0
 72
100
 90
0
  1

281
0
 71
0
 74
0
110
0.0
120
0.0
130
0.0
111
1.0
121
0.0
131
0.0
112
0.0
122
1.0
132
0.0
 79
0
146
0.0
  0
ENDBLK
  5
278
330
276
100
AcDbEntity
  8
0
100
AcDbBlockEnd
  0
BLOCK
  5
27D
330
27C
100
AcDbEntity
  8
0
100
AcDbBlockBegin
  2
*Paper_Space23
 70
0
 10
0.0
 20
0.0
 30
0.0
  3
*Paper_Space23
  1

  0
VIEWPORT
  5
280
330
27C
100
AcDbEntity
 67
1
  8
VIEWPORTS
100
AcDbViewport
 10
105.0
 20
148.5
 30
0.0
 40
231.00000000000003
 41
326.70000000000005
 68
1
 69
1
 12
105.0
 22
148.5
 13
0.0
 23
0.0
 14
10.0
 24
10.0
 15
10.0
 25
10.0
 16
0.0
 26
0.0
 36
0.0
 17
0.0
 27
0.0
 37
0.0
 42
50.0
 43
0.0
 44
0.0
 45
326.70000000000005
 50
0.0
 51
0.0
 72
100
 90
557088
  1

281
0
 71
0
 74
0
110
0.0
120
0.0
130
0.0
111
1.0
121
0.0
131
0.0
112
0.0
122
1.0
132
0.0
 79
0
146
0.0
  0
VIEWPORT
  5
281
330
27C
100
AcDbEntity
 67
1
  8
VIEWPORTS
100
AcDbViewport
 10
105.0
 20
148.5
 30
0.0
 40
210.0
 41
297.0
 68
1
 69
51
 12
735.0
 22
-742.5
 13
0.0
 23
0.0
 14
10.0
 24
10.0
 15
10.0
 25
10.0
 16
0.0
 26
0.0
 36
0.0
 17
0.0
 27
0.0
 37
0.0
 42
50.0
 43
0.0
 44
0.0
 45
297.0
 50
0.0
 51
0.0
 72
100
 90
0
  1

281
0
 71
0
 74
0
110
0.0
120
0.0
130
0.0
111
1.0
121
0.0
131
0.0
112
0.0
122
1.0
132
0.0
 79
0
146
0.0
  0
ENDBLK
  5
27E
330
27C
100
AcDbEntity
  8
0
100
AcDbBlockEnd
  0
BLOCK
  5
283
330
282
100
AcDbEntity
  8
0
100
AcDbBlockBegin
  2
*Paper_Space24
 70
0
 10
0.0
 20
0.0
 30
0.0
  3
*Paper_Space24
  1

  0
VIEWPORT
  5
286
330
282
100
AcDbEntity
 67
1
  8
VIEWPORTS
100
AcDbViewport
 10
105.0
 20
148.5
 30
0.0
 40
231.00000000000003
 41
326.70000000000005
 68
1
 69
1
 12
105.0
 22
148.5
 13
0.0
 23
0.0
 14
10.0
 24
10.0
 15
10.0
 25
10.0
 16
0.0
 26
0.0
 36
0.0
 17
0.0
 27
0.0
 37
0.0
 42
50.0
 43
0.0
 44
0.0
 45
326.70000000000005
 50
0.0
 51
0.0
 72
100
 90
557088
  1

281
0
 71
0
 74
0
110
0.0
120
0.0
130
0.0
111
1.0
121
0.0
131
0.0
112
0.0
122
1.0
132
0.0
 79
0
146
0.0
  0
VIEWPORT
  5
287
330
282
100
AcDbEntity
 67
1
  8
VIEWPORTS
100
AcDbViewport
 10
105.0
 20
148.5
 30
0.0
 40
210.0
 41
297.0
 68
1
 69
53
 12
945.0
 22
-742.5
 13
0.0
 23
0.0
 14
10.0
 24
10.0
 15
10.0
 25
10.0
 16
0.0
 26
0.0
 36
0.0
 17
0.0
 27
0.0
 37
0.0
 42
50.0
 43
0.0
 44
0.0
 45
297.0
 50
0.0
 51
0.0
 72
100
 90
0
  1

281
0
 71
0
 74
0
110
0.0
120
0.0
130
0.0
111
1.0
121
0.0
131
0.0
112
0.0
122
1.0
132
0.0
 79
0
146
0.0
  0
ENDBLK
  5
284
330
282
100
AcDbEntity
  8
0
100
AcDbBlockEnd
  0
BLOCK
  5
289
330
288
100
AcDbEntity
  8
0
100
AcDbBlockBegin
  2
*Paper_Space25
 70
0
 10
0.0
 20
0.0
 30
0.0
  3
*Paper_Space25
  1

  0
VIEWPORT
  5
28C
330
288
100
AcDbEntity
 67
1
  8
VIEWPORTS
100
AcDbViewport
 10
105.0
 20
148.5
 30
0.0
 40
231.00000000000003
 41
326.70000000000005
 68
1
 69
1
 12
105.0
 22
148.5
 13
0.0
 23
0.0
 14
10.0
 24
10.0
 15
10.0
 25
10.0
 16
0.0
 26
0.0
 36
0.0
 17
0.0
 27
0.0
 37
0.0
 42
50.0
 43
0.0
 44
0.0
 45
326.70000000000005
 50
0.0
 51
0.0
 72
100
 90
557088
  1

281
0
 71
0
 74
0
110
0.0
120
0.0
130
0.0
111
1.0
121
0.0
131
0.0
112
0.0
122
1.0
132
0.0
 79
0
146
0.0
  0
VIEWPORT
  5
28D
330
288
100
AcDbEntity
 67
1
  8
VIEWPORTS
100
AcDbViewport
 10
105.0
 20
148.5
 30
0.0
 40
210.0
 41
297.0
 68
1
 69
55
 12
1155.0
 22
-742.5
 13
0.0
 23
0.0
 14
10.0
 24
10.0
 15
10.0
 25
10.0
 16
0.0
 26
0.0
 36
0.0
 17
0.0
 27
0.0
 37
0.0
 42
50.0
 43
0.0
 44
0.0
 45
297.0
 50
0.0
 51
0.0
 72
100
 90
0
  1

281
0
 71
0
 74
0
110
0.0
120
0.0
130
0.0
111
1.0
121
0.0
131
0.0
112
0.0
122
1.0
132
0.0
 79
0
146
0.0
  0
ENDBLK
  5
28A
330
288
100
AcDbEntity
  8
0
100
AcDbBlockEnd
  0
BLOCK
  5
28F
330
28E
100
AcDbEntity
  8
0
100
AcDbBlockBegin
  2
*Paper_Space26
 70
0
 10
0.0
 20
0.0
 30
0.0
  3
*Paper_Space26
  1

  0
VIEWPORT
  5
292
330
28E
100
AcDbEntity
 67
1
  8
VIEWPORTS
100
AcDbViewport
 10
105.0
 20
148.5
 30
0.0
 40
231.00000000000003
 41
326.70000000000005
 68
1
 69
1
 12
105.0
 22
148.5
 13
0.0
 23
0.0
 14
10.0
 24
10.0
 15
10.0
 25
10.0
 16
0.0
 26
0.0
 36
0.0
 17
0.0
 27
0.0
 37
0.0
 42
50.0
 43
0.0
 44
0.0
 45
326.70000000000005
 50
0.0
 51
0.0
 72
100
 90
557088
  1

281
0
 71
0
 74
0
110
0.0
120
0.0
130
0.0
111
1.0
121
0.0
131
0.0
112
0.0
122
1.0
132
0.0
 79
0
146
0.0
  0
VIEWPORT
  5
293
330
28E
100
AcDbEntity
 67
1
  8
VIEWPORTS
100
AcDbViewport
 10
105.0
 20
148.5
 30
0.0
 40
210.0
 41
297.0
 68
1
 69
57
 12
1365.0
 22
-742.5
 13
0.0
 23
0.0
 14
10.0
 24
10.0
 15
10.0
 25
10.0
 16
0.0
 26
0.0
 36
0.0
 17
0.0
 27
0.0
 37
0.0
 42
50.0
 43
0.0
 44
0.0
 45
297.0
 50
0.0
 51
0.0
 72
100
 90
0
  1

281
0
 71
0
 74
0
110
0.0
120
0.0
130
0.0
111
1.0
121
0.0
131
0.0
112
0.0
122
1.0
132
0.0
 79
0
146
0.0
  0
ENDBLK
  5
290
330
28E
100
AcDbEntity
  8
0
100
AcDbBlockEnd
  0
BLOCK
  5
295
330
294
100
AcDbEntity
  8
0
100
AcDbBlockBegin
  2
*Paper_Space27
 70
0
 10
0.0
 20
0.0
 30
0.0
  3
*Paper_Space27
  1

  0
VIEWPORT
  5
298
330
294
100
AcDbEntity
 67
1
  8
VIEWPORTS
100
AcDbViewport
 10
105.0
 20
148.5
 30
0.0
 40
231.00000000000003
 41
326.70000000000005
 68
1
 69
1
 12
105.0
 22
148.5
 13
0.0
 23
0.0
 14
10.0
 24
10.0
 15
10.0
 25
10.0
 16
0.0
 26
0.0
 36
0.0
 17
0.0
 27
0.0
 37
0.0
 42
50.0
 43
0.0
 44
0.0
 45
326.70000000000005
 50
0.0
 51
0.0
 72
100
 90
557088
  1

281
0
 71
0
 74
0
110
0.0
120
0.0
130
0.0
111
1.0
121
0.0
131
0.0
112
0.0
122
1.0
132
0.0
 79
0
146
0.0
  0
VIEWPORT
  5
299
330
294
100
AcDbEntity
 67
1
  8
VIEWPORTS
100
AcDbViewport
 10
105.0
 20
148.5
 30
0.0
 40
210.0
 41
297.0
 68
1
 69
59
 12
1575.0
 22
-742.5
 13
0.0
 23
0.0
 14
10.0
 24
10.0
 15
10.0
 25
10.0
 16
0.0
 26
0.0
 36
0.0
 17
0.0
 27
0.0
 37
0.0
 42
50.0
 43
0.0
 44
0.0
 45
297.0
 50
0.0
 51
0.0
 72
100
 90
0
  1

281
0
 71
0
 74
0
110
0.0
120
0.0
130
0.0
111
1.0
121
0.0
131
0.0
112
0.0
122
1.0
132
0.0
 79
0
146
0.0
  0
ENDBLK
  5
296
330
294
100
AcDbEntity
  8
0
100
AcDbBlockEnd
  0
BLOCK
  5
29B
330
29A
100
AcDbEntity
  8
0
100
AcDbBlockBegin
  2
*Paper_Space28
 70
0
 10
0.0
 20
0.0
 30
0.0
  3
*Paper_Space28
  1

  0
VIEWPORT
  5
29E
330
29A
100
AcDbEntity
 67
1
  8
VIEWPORTS
100
AcDbViewport
 10
105.0
 20
148.5
 30
0.0
 40
231.00000000000003
 41
326.70000000000005
 68
1
 69
1
 12
105.0
 22
148.5
 13
0.0
 23
0.0
 14
10.0
 24
10.0
 15
10.0
 25
10.0
 16
0.0
 26
0.0
 36
0.0
 17
0.0
 27
0.0
 37
0.0
 42
50.0
 43
0.0
 44
0.0
 45
326.70000000000005
 50
0.0
 51
0.0
 72
100
 90
557088
  1

281
0
 71
0
 74
0
110
0.0
120
0.0
130
0.0
111
1.0
121
0.0
131
0.0
112
0.0
122
1.0
132
0.0
 79
0
146
0.0
  0
VIEWPORT
  5
29F
330
29A
100
AcDbEntity
 67
1
  8
VIEWPORTS
100
AcDbViewport
 10
105.0
 20
148.5
 30
0.0
 40
210.0
 41
297.0
 68
1
 69
61
 12
1785.0
 22
-742.5
 13
0.0
 23
0.0
 14
10.0
 24
10.0
 15
10.0
 25
10.0
 16
0.0
 26
0.0
 36
0.0
 17
0.0
 27
0.0
 37
0.0
 42
50.0
 43
0.0
 44
0.0
 45
297.0
 50
0.0
 51
0.0
 72
100
 90
0
  1

281
0
 71
0
 74
0
110
0.0
120
0.0
130
0.0
111
1.0
121
0.0
131
0.0
112
0.0
122
1.0
132
0.0
 79
0
146
0.0
  0
ENDBLK
  5
29C
330
29A
100
AcDbEntity
  8
0
100
AcDbBlockEnd
  0
BLOCK
  5
2A1
330
2A0
100
AcDbEntity
  8
0
100
AcDbBlockBegin
  2
*Paper_Space29
 70
0
 10
0.0
 20
0.0
 30
0.0
  3
*Paper_Space29
  1

  0
VIEWPORT
  5
2A4
330
2A0
100
AcDbEntity
 67
1
  8
VIEWPORTS
100
AcDbViewport
 10
105.0
 20
148.5
 30
0.0
 40
231.00000000000003
 41
326.70000000000005
 68
1
 69
1
 12
105.0
 22
148.5
 13
0.0
 23
0.0
 14
10.0
 24
10.0
 15
10.0
 25
10.0
 16
0.0
 26
0.0
 36
0.0
 17
0.0
 27
0.0
 37
0.0
 42
50.0
 43
0.0
 44
0.0
 45
326.70000000000005
 50
0.0
 51
0.0
 72
100
 90
557088
  1

281
0
 71
0
 74
0
110
0.0
120
0.0
130
0.0
111
1.0
121
0.0
131
0.0
112
0.0
122
1.0
132
0.0
 79
0
146
0.0
  0
VIEWPORT
  5
2A5
330
2A0
100
AcDbEntity
 67
1
  8
VIEWPORTS
100
AcDbViewport
 10
105.0
 20
148.5
 30
0.0
 40
210.0
 41
297.0
 68
1
 69
63
 12
1995.0
 22
-742.5
 13
0.0
 23
0.0
 14
10.0
 24
10.0
 15
10.0
 25
10.0
 16
0.0
 26
0.0
 36
0.0
 17
0.0
 27
0.0
 37
0.0
 42
50.0
 43
0.0
 44
0.0
 45
297.0
 50
0.0
 51
0.0
 72
100
 90
0
  1

281
0
 71
0
 74
0
110
0.0
120
0.0
130
0.0
111
1.0
121
0.0
131
0.0
112
0.0
122
1.0
132
0.0
 79
0
146
0.0
  0
ENDBLK
  5
2A2
330
2A0
100
AcDbEntity
  8
0
100
AcDbBlockEnd
  0
BLOCK
  5
2A7
330
2A6
100
AcDbEntity
  8
0
100
AcDbBlockBegin
  2
*Paper_Space30
 70
0
 10
0.0
 20
0.0
 30
0.0
  3
*Paper_Space30
  1

  0
VIEWPORT
  5
2AA
330
2A6
100
AcDbEntity
 67
1
  8
VIEWPORTS
100
AcDbViewport
 10
105.0
 20
148.5
 30
0.0
 40
231.00000000000003
 41
326.70000000000005
 68
1
 69
1
 12
105.0
 22
148.5
 13
0.0
 23
0.0
 14
10.0
 24
10.0
 15
10.0
 25
10.0
 16
0.0
 26
0.0
 36
0.0
 17
0.0
 27
0.0
 37
0.0
 42
50.0
 43
0.0
 44
0.0
 45
326.70000000000005
 50
0.0
 51
0.0
 72
100
 90
557088
  1

281
0
 71
0
 74
0
110
0.0
120
0.0
130
0.0
111
1.0
121
0.0
131
0.0
112
0.0
122
1.0
132
0.0
 79
0
146
0.0
  0
VIEWPORT
  5
2AB
330
2A6
100
AcDbEntity
 67
1
  8
VIEWPORTS
100
AcDbViewport
 10
105.0
 20
148.5
 30
0.0
 40
210.0
 41
297.0
 68
1
 69
65
 12
105.0
 22
-1039.5
 13
0.0
 23
0.0
 14
10.0
 24
10.0
 15
10.0
 25
10.0
 16
0.0
 26
0.0
 36
0.0
 17
0.0
 27
0.0
 37
0.0
 42
50.0
 43
0.0
 44
0.0
 45
297.0
 50
0.0
 51
0.0
 72
100
 90
0
  1

281
0
 71
0
 74
0
110
0.0
120
0.0
130
0.0
111
1.0
121
0.0
131
0.0
112
0.0
122
1.0
132
0.0
 79
0
146
0.0
  0
ENDBLK
  5
2A8
330
2A6
100
AcDbEntity
  8
0
100
AcDbBlockEnd
  0
BLOCK
  5
2AD
330
2AC
100
AcDbEntity
  8
0
100
AcDbBlockBegin
  2
*Paper_Space31
 70
0
 10
0.0
 20
0.0
 30
0.0
  3
*Paper_Space31
  1

  0
VIEWPORT
  5
2B0
330
2AC
100
AcDbEntity
 67
1
  8
VIEWPORTS
100
AcDbViewport
 10
105.0
 20
148.5
 30
0.0
 40
231.00000000000003
 41
326.70000000000005
 68
1
 69
1
 12
105.0
 22
148.5
 13
0.0
 23
0.0
 14
10.0
 24
10.0
 15
10.0
 25
10.0
 16
0.0
 26
0.0
 36
0.0
 17
0.0
 27
0.0
 37
0.0
 42
50.0
 43
0.0
 44
0.0
 45
326.70000000000005
 50
0.0
 51
0.0
 72
100
 90
557088
  1

281
0
 71
0
 74
0
110
0.0
120
0.0
130
0.0
111
1.0
121
0.0
131
0.0
112
0.0
122
1.0
132
0.0
 79
0
146
0.0
  0
VIEWPORT
  5
2B1
330
2AC
100
AcDbEntity
 67
1
  8
VIEWPORTS
100
AcDbViewport
 10
105.0
 20
148.5
 30
0.0
 40
210.0
 41
297.0
 68
1
 69
67
 12
315.0
 22
-1039.5
 13
0.0
 23
0.0
 14
10.0
 24
10.0
 15
10.0
 25
10.0
 16
0.0
 26
0.0
 36
0.0
 17
0.0
 27
0.0
 37
0.0
 42
50.0
 43
0.0
 44
0.0
 45
297.0
 50
0.0
 51
0.0
 72
100
 90
0
  1

281
0
 71
0
 74
0
110
0.0
120
0.0
130
0.0
111
1.0
121
0.0
131
0.0
112
0.0
122
1.0
132
0.0
 79
0
146
0.0
  0
ENDBLK
  5
2AE
330
2AC
100
AcDbEntity
  8
0
100
AcDbBlockEnd
  0
BLOCK
  5
2B3
330
2B2
100
AcDbEntity
  8
0
100
AcDbBlockBegin
  2
*Paper_Space32
 70
0
 10
0.0
 20
0.0
 30
0.0
  3
*Paper_Space32
  1

  0
VIEWPORT
  5
2B6
330
2B2
100
AcDbEntity
 67
1
  8
VIEWPORTS
100
AcDbViewport
 10
105.0
 20
148.5
 30
0.0
 40
231.00000000000003
 41
326.70000000000005
 68
1
 69
1
 12
105.0
 22
148.5
 13
0.0
 23
0.0
 14
10.0
 24
10.0
 15
10.0
 25
10.0
 16
0.0
 26
0.0
 36
0.0
 17
0.0
 27
0.0
 37
0.0
 42
50.0
 43
0.0
 44
0.0
 45
326.70000000000005
 50
0.0
 51
0.0
 72
100
 90
557088
  1

281
0
 71
0
 74
0
110
0.0
120
0.0
130
0.0
111
1.0
121
0.0
131
0.0
112
0.0
122
1.0
132
0.0
 79
0
146
0.0
  0
VIEWPORT
  5
2B7
330
2B2
100
AcDbEntity
 67
1
  8
VIEWPORTS
100
AcDbViewport
 10
105.0
 20
148.5
 30
0.0
 40
210.0
 41
297.0
 68
1
 69
69
 12
525.0
 22
-1039.5
 13
0.0
 23
0.0
 14
10.0
 24
10.0
 15
10.0
 25
10.0
 16
0.0
 26
0.0
 36
0.0
 17
0.0
 27
0.0
 37
0.0
 42
50.0
 43
0.0
 44
0.0
 45
297.0
 50
0.0
 51
0.0
 72
100
 90
0
  1

281
0
 71
0
 74
0
110
0.0
120
0.0
130
0.0
111
1.0
121
0.0
131
0.0
112
0.0
122
1.0
132
0.0
 79
0
146
0.0
  0
ENDBLK
  5
2B4
330
2B2
100
AcDbEntity
  8
0
100
AcDbBlockEnd
  0
BLOCK
  5
2B9
330
2B8
100
AcDbEntity
  8
0
100
AcDbBlockBegin
  2
*Paper_Space33
 70
0
 10
0.0
 20
0.0
 30
0.0
  3
*Paper_Space33
  1

  0
VIEWPORT
  5
2BC
330
2B8
100
AcDbEntity
 67
1
  8
VIEWPORTS
100
AcDbViewport
 10
105.0
 20
148.5
 30
0.0
 40
231.00000000000003
 41
326.70000000000005
 68
1
 69
1
 12
105.0
 22
148.5
 13
0.0
 23
0.0
 14
10.0
 24
10.0
 15
10.0
 25
10.0
 16
0.0
 26
0.0
 36
0.0
 17
0.0
 27
0.0
 37
0.0
 42
50.0
 43
0.0
 44
0.0
 45
326.70000000000005
 50
0.0
 51
0.0
 72
100
 90
557088
  1

281
0
 71
0
 74
0
110
0.0
120
0.0
130
0.0
111
1.0
121
0.0
131
0.0
112
0.0
122
1.0
132
0.0
 79
0
146
0.0
  0
VIEWPORT
  5
2BD
330
2B8
100
AcDbEntity
 67
1
  8
VIEWPORTS
100
AcDbViewport
 10
105.0
 20
148.5
 30
0.0
 40
210.0
 41
297.0
 68
1
 69
71
 12
735.0
 22
-1039.5
 13
0.0
 23
0.0
 14
10.0
 24
10.0
 15
10.0
 25
10.0
 16
0.0
 26
0.0
 36
0.0
 17
0.0
 27
0.0
 37
0.0
 42
50.0
 43
0.0
 44
0.0
 45
297.0
 50
0.0
 51
0.0
 72
100
 90
0
  1

281
0
 71
0
 74
0
110
0.0
120
0.0
130
0.0
111
1.0
121
0.0
131
0.0
112
0.0
122
1.0
132
0.0
 79
0
146
0.0
  0
ENDBLK
  5
2BA
330
2B8
100
AcDbEntity
  8
0
100
AcDbBlockEnd
  0
BLOCK
  5
2BF
330
2BE
100
AcDbEntity
  8
0
100
AcDbBlockBegin
  2
*Paper_Space34
 70
0
 10
0.0
 20
0.0
 30
0.0
  3
*Paper_Space34
  1

  0
VIEWPORT
  5
2C2
330
2BE
100
AcDbEntity
 67
1
  8
VIEWPORTS
100
AcDbViewport
 10
105.0
 20
148.5
 30
0.0
 40
231.00000000000003
 41
326.70000000000005
 68
1
 69
1
 12
105.0
 22
148.5
 13
0.0
 23
0.0
 14
10.0
 24
10.0
 15
10.0
 25
10.0
 16
0.0
 26
0.0
 36
0.0
 17
0.0
 27
0.0
 37
0.0
 42
50.0
 43
0.0
 44
0.0
 45
326.70000000000005
 50
0.0
 51
0.0
 72
100
 90
557088
  1

281
0
 71
0
 74
0
110
0.0
120
0.0
130
0.0
111
1.0
121
0.0
131
0.0
112
0.0
122
1.0
132
0.0
 79
0
146
0.0
  0
VIEWPORT
  5
2C3
330
2BE
100
AcDbEntity
 67
1
  8
VIEWPORTS
100
AcDbViewport
 10
105.0
 20
148.5
 30
0.0
 40
210.0
 41
297.0
 68
1
 69
73
 12
945.0
 22
-1039.5
 13
0.0
 23
0.0
 14
10.0
 24
10.0
 15
10.0
 25
10.0
 16
0.0
 26
0.0
 36
0.0
 17
0.0
 27
0.0
 37
0.0
 42
50.0
 43
0.0
 44
0.0
 45
297.0
 50
0.0
 51
0.0
 72
100
 90
0
  1

281
0
 71
0
 74
0
110
0.0
120
0.0
130
0.0
111
1.0
121
0.0
131
0.0
112
0.0
122
1.0
132
0.0
 79
0
146
0.0
  0
ENDBLK
  5
2C0
330
2BE
100
AcDbEntity
  8
0
100
AcDbBlockEnd
  0
BLOCK
  5
2C5
330
2C4
100
AcDbEntity
  8
0
100
AcDbBlockBegin
  2
*Paper_Space35
 70
0
 10
0.0
 20
0.0
 30
0.0
  3
*Paper_Space35
  1

  0
VIEWPORT
  5
2C8
330
2C4
100
AcDbEntity
 67
1
  8
VIEWPORTS
100
AcDbViewport
 10
105.0
 20
148.5
 30
0.0
 40
231.00000000000003
 41
326.70000000000005
 68
1
 69
1
 12
105.0
 22
148.5
 13
0.0
 23
0.0
 14
10.0
 24
10.0
 15
10.0
 25
10.0
 16
0.0
 26
0.0
 36
0.0
 17
0.0
 27
0.0
 37
0.0
 42
50.0
 43
0.0
 44
0.0
 45
326.70000000000005
 50
0.0
 51
0.0
 72
100
 90
557088
  1

281
0
 71
0
 74
0
110
0.0
120
0.0
130
0.0
111
1.0
121
0.0
131
0.0
112
0.0
122
1.0
132
0.0
 79
0
146
0.0
  0
VIEWPORT
  5
2C9
330
2C4
100
AcDbEntity
 67
1
  8
VIEWPORTS
100
AcDbViewport
 10
105.0
 20
148.5
 30
0.0
 40
210.0
 41
297.0
 68
1
 69
75
 12
1155.0
 22
-1039.5
 13
0.0
 23
0.0
 14
10.0
 24
10.0
 15
10.0
 25
10.0
 16
0.0
 26
0.0
 36
0.0
 17
0.0
 27
0.0
 37
0.0
 42
50.0
 43
0.0
 44
0.0
 45
297.0
 50
0.0
 51
0.0
 72
100
 90
0
  1

281
0
 71
0
 74
0
110
0.0
120
0.0
130
0.0
111
1.0
121
0.0
131
0.0
112
0.0
122
1.0
132
0.0
 79
0
146
0.0
  0
ENDBLK
  5
2C6
330
2C4
100
AcDbEntity
  8
0
100
AcDbBlockEnd
  0
BLOCK
  5
2CB
330
2CA
100
AcDbEntity
  8
0
100
AcDbBlockBegin
  2
*Paper_Space36
 70
0
 10
0.0
 20
0.0
 30
0.0
  3
*Paper_Space36
  1

  0
VIEWPORT
  5
2CE
330
2CA
100
AcDbEntity
 67
1
  8
VIEWPORTS
100
AcDbViewport
 10
105.0
 20
148.5
 30
0.0
 40
231.00000000000003
 41
326.70000000000005
 68
1
 69
1
 12
105.0
 22
148.5
 13
0.0
 23
0.0
 14
10.0
 24
10.0
 15
10.0
 25
10.0
 16
0.0
 26
0.0
 36
0.0
 17
0.0
 27
0.0
 37
0.0
 42
50.0
 43
0.0
 44
0.0
 45
326.70000000000005
 50
0.0
 51
0.0
 72
100
 90
557088
  1

281
0
 71
0
 74
0
110
0.0
120
0.0
130
0.0
111
1.0
121
0.0
131
0.0
112
0.0
122
1.0
132
0.0
 79
0
146
0.0
  0
VIEWPORT
  5
2CF
330
2CA
100
AcDbEntity
 67
1
  8
VIEWPORTS
100
AcDbViewport
 10
105.0
 20
148.5
 30
0.0
 40
210.0
 41
297.0
 68
1
 69
77
 12
1365.0
 22
-1039.5
 13
0.0
 23
0.0
 14
10.0
 24
10.0
 15
10.0
 25
10.0
 16
0.0
 26
0.0
 36
0.0
 17
0.0
 27
0.0
 37
0.0
 42
50.0
 43
0.0
 44
0.0
 45
297.0
 50
0.0
 51
0.0
 72
100
 90
0
  1

281
0
 71
0
 74
0
110
0.0
120
0.0
130
0.0
111
1.0
121
0.0
131
0.0
112
0.0
122
1.0
132
0.0
 79
0
146
0.0
  0
ENDBLK
  5
2CC
330
2CA
100
AcDbEntity
  8
0
100
AcDbBlockEnd
  0
BLOCK
  5
2D1
330
2D0
100
AcDbEntity
  8
0
100
AcDbBlockBegin
  2
*Paper_Space37
 70
0
 10
0.0
 20
0.0
 30
0.0
  3
*Paper_Space37
  1

  0
VIEWPORT
  5
2D4
330
2D0
100
AcDbEntity
 67
1
  8
VIEWPORTS
100
AcDbViewport
 10
105.0
 20
148.5
 30
0.0
 40
231.00000000000003
 41
326.70000000000005
 68
1
 69
1
 12
105.0
 22
148.5
 13
0.0
 23
0.0
 14
10.0
 24
10.0
 15
10.0
 25
10.0
 16
0.0
 26
0.0
 36
0.0
 17
0.0
 27
0.0
 37
0.0
 42
50.0
 43
0.0
 44
0.0
 45
326.70000000000005
 50
0.0
 51
0.0
 72
100
 90
557088
  1

281
0
 71
0
 74
0
110
0.0
120
0.0
130
0.0
111
1.0
121
0.0
131
0.0
112
0.0
122
1.0
132
0.0
 79
0
146
0.0
  0
VIEWPORT
  5
2D5
330
2D0
100
AcDbEntity
 67
1
  8
VIEWPORTS
100
AcDbViewport
 10
105.0
 20
148.5
 30
0.0
 40
210.0
 41
297.0
 68
1
 69
79
 12
1575.0
 22
-1039.5
 13
0.0
 23
0.0
 14
10.0
 24
10.0
 15
10.0
 25
10.0
 16
0.0
 26
0.0
 36
0.0
 17
0.0
 27
0.0
 37
0.0
 42
50.0
 43
0.0
 44
0.0
 45
297.0
 50
0.0
 51
0.0
 72
100
 90
0
  1

281
0
 71
0
 74
0
110
0.0
120
0.0
130
0.0
111
1.0
121
0.0
131
0.0
112
0.0
122
1.0
132
0.0
 79
0
146
0.0
  0
ENDBLK
  5
2D2
330
2D0
100
AcDbEntity
  8
0
100
AcDbBlockEnd
  0
BLOCK
  5
2D7
330
2D6
100
AcDbEntity
  8
0
100
AcDbBlockBegin
  2
*Paper_Space38
 70
0
 10
0.0
 20
0.0
 30
0.0
  3
*Paper_Space38
  1

  0
VIEWPORT
  5
2DA
330
2D6
100
AcDbEntity
 67
1
  8
VIEWPORTS
100
AcDbViewport
 10
105.0
 20
148.5
 30
0.0
 40
231.00000000000003
 41
326.70000000000005
 68
1
 69
1
 12
105.0
 22
148.5
 13
0.0
 23
0.0
 14
10.0
 24
10.0
 15
10.0
 25
10.0
 16
0.0
 26
0.0
 36
0.0
 17
0.0
 27
0.0
 37
0.0
 42
50.0
 43
0.0
 44
0.0
 45
326.70000000000005
 50
0.0
 51
0.0
 72
100
 90
557088
  1

281
0
 71
0
 74
0
110
0.0
120
0.0
130
0.0
111
1.0
121
0.0
131
0.0
112
0.0
122
1.0
132
0.0
 79
0
146
0.0
  0
VIEWPORT
  5
2DB
330
2D6
100
AcDbEntity
 67
1
  8
VIEWPORTS
100
AcDbViewport
 10
105.0
 20
148.5
 30
0.0
 40
210.0
 41
297.0
 68
1
 69
81
 12
1785.0
 22
-1039.5
 13
0.0
 23
0.0
 14
10.0
 24
10.0
 15
10.0
 25
10.0
 16
0.0
 26
0.0
 36
0.0
 17
0.0
 27
0.0
 37
0.0
 42
50.0
 43
0.0
 44
0.0
 45
297.0
 50
0.0
 51
0.0
 72
100
 90
0
  1

281
0
 71
0
 74
0
110
0.0
120
0.0
130
0.0
111
1.0
121
0.0
131
0.0
112
0.0
122
1.0
132
0.0
 79
0
146
0.0
  0
ENDBLK
  5
2D8
330
2D6
100
AcDbEntity
  8
0
100
AcDbBlockEnd
  0
BLOCK
  5
2DD
330
2DC
100
AcDbEntity
  8
0
100
AcDbBlockBegin
  2
*Paper_Space39
 70
0
 10
0.0
 20
0.0
 30
0.0
  3
*Paper_Space39
  1

  0
VIEWPORT
  5
2E0
330
2DC
100
AcDbEntity
 67
1
  8
VIEWPORTS
100
AcDbViewport
 10
105.0
 20
148.5
 30
0.0
 40
231.00000000000003
 41
326.70000000000005
 68
1
 69
1
 12
105.0
 22
148.5
 13
0.0
 23
0.0
 14
10.0
 24
10.0
 15
10.0
 25
10.0
 16
0.0
 26
0.0
 36
0.0
 17
0.0
 27
0.0
 37
0.0
 42
50.0
 43
0.0
 44
0.0
 45
326.70000000000005
 50
0.0
 51
0.0
 72
100
 90
557088
  1

281
0
 71
0
 74
0
110
0.0
120
0.0
130
0.0
111
1.0
121
0.0
131
0.0
112
0.0
122
1.0
132
0.0
 79
0
146
0.0
  0
VIEWPORT
  5
2E1
330
2DC
100
AcDbEntity
 67
1
  8
VIEWPORTS
100
AcDbViewport
 10
105.0
 20
148.5
 30
0.0
 40
210.0
 41
297.0
 68
1
 69
83
 12
1995.0
 22
-1039.5
 13
0.0
 23
0.0
 14
10.0
 24
10.0
 15
10.0
 25
10.0
 16
0.0
 26
0.0
 36
0.0
 17
0.0
 27
0.0
 37
0.0
 42
50.0
 43
0.0
 44
0.0
 45
297.0
 50
0.0
 51
0.0
 72
100
 90
0
  1

281
0
 71
0
 74
0
110
0.0
120
0.0
130
0.0
111
1.0
121
0.0
131
0.0
112
0.0
122
1.0
132
0.0
 79
0
146
0.0
  0
ENDBLK
  5
2DE
330
2DC
100
AcDbEntity
  8
0
100
AcDbBlockEnd
  0
BLOCK
  5
2E3
330
2E2
100
AcDbEntity
  8
0
100
AcDbBlockBegin
  2
*Paper_Space40
 70
0
 10
0.0
 20
0.0
 30
0.0
  3
*Paper_Space40
  1

  0
VIEWPORT
  5
2E6
330
2E2
100
AcDbEntity
 67
1
  8
VIEWPORTS
100
AcDbViewport
 10
105.0
 20
148.5
 30
0.0
 40
231.00000000000003
 41
326.70000000000005
 68
1
 69
1
 12
105.0
 22
148.5
 13
0.0
 23
0.0
 14
10.0
 24
10.0
 15
10.0
 25
10.0
 16
0.0
 26
0.0
 36
0.0
 17
0.0
 27
0.0
 37
0.0
 42
50.0
 43
0.0
 44
0.0
 45
326.70000000000005
 50
0.0
 51
0.0
 72
100
 90
557088
  1

281
0
 71
0
 74
0
110
0.0
120
0.0
130
0.0
111
1.0
121
0.0
131
0.0
112
0.0
122
1.0
132
0.0
 79
0
146
0.0
  0
VIEWPORT
  5
2E7
330
2E2
100
AcDbEntity
 67
1
  8
VIEWPORTS
100
AcDbViewport
 10
105.0
 20
148.5
 30
0.0
 40
210.0
 41
297.0
 68
1
 69
85
 12
105.0
 22
-1336.5
 13
0.0
 23
0.0
 14
10.0
 24
10.0
 15
10.0
 25
10.0
 16
0.0
 26
0.0
 36
0.0
 17
0.0
 27
0.0
 37
0.0
 42
50.0
 43
0.0
 44
0.0
 45
297.0
 50
0.0
 51
0.0
 72
100
 90
0
  1

281
0
 71
0
 74
0
110
0.0
120
0.0
130
0.0
111
1.0
121
0.0
131
0.0
112
0.0
122
1.0
132
0.0
 79
0
146
0.0
  0
ENDBLK
  5
2E4
330
2E2
100
AcDbEntity
  8
0
100
AcDbBlockEnd
  0
BLOCK
  5
2E9
330
2E8
100
AcDbEntity
  8
0
100
AcDbBlockBegin
  2
*Paper_Space41
 70
0
 10
0.0
 20
0.0
 30
0.0
  3
*Paper_Space41
  1

  0
VIEWPORT
  5
2EC
330
2E8
100
AcDbEntity
 67
1
  8
VIEWPORTS
100
AcDbViewport
 10
105.0
 20
148.5
 30
0.0
 40
231.00000000000003
 41
326.70000000000005
 68
1
 69
1
 12
105.0
 22
148.5
 13
0.0
 23
0.0
 14
10.0
 24
10.0
 15
10.0
 25
10.0
 16
0.0
 26
0.0
 36
0.0
 17
0.0
 27
0.0
 37
0.0
 42
50.0
 43
0.0
 44
0.0
 45
326.70000000000005
 50
0.0
 51
0.0
 72
100
 90
557088
  1

281
0
 71
0
 74
0
110
0.0
120
0.0
130
0.0
111
1.0
121
0.0
131
0.0
112
0.0
122
1.0
132
0.0
 79
0
146
0.0
  0
VIEWPORT
  5
2ED
330
2E8
100
AcDbEntity
 67
1
  8
VIEWPORTS
100
AcDbViewport
 10
105.0
 20
148.5
 30
0.0
 40
210.0
 41
297.0
 68
1
 69
87
 12
315.0
 22
-1336.5
 13
0.0
 23
0.0
 14
10.0
 24
10.0
 15
10.0
 25
10.0
 16
0.0
 26
0.0
 36
0.0
 17
0.0
 27
0.0
 37
0.0
 42
50.0
 43
0.0
 44
0.0
 45
297.0
 50
0.0
 51
0.0
 72
100
 90
0
  1

281
0
 71
0
 74
0
110
0.0
120
0.0
130
0.0
111
1.0
121
0.0
131
0.0
112
0.0
122
1.0
132
0.0
 79
0
146
0.0
  0
ENDBLK
  5
2EA
330
2E8
100
AcDbEntity
  8
0
100
AcDbBlockEnd
  0
BLOCK
  5
2EF
330
2EE
100
AcDbEntity
  8
0
100
AcDbBlockBegin
  2
*Paper_Space42
 70
0
 10
0.0
 20
0.0
 30
0.0
  3
*Paper_Space42
  1

  0
VIEWPORT
  5
2F2
330
2EE
100
AcDbEntity
 67
1
  8
VIEWPORTS
100
AcDbViewport
 10
105.0
 20
148.5
 30
0.0
 40
231.00000000000003
 41
326.70000000000005
 68
1
 69
1
 12
105.0
 22
148.5
 13
0.0
 23
0.0
 14
10.0
 24
10.0
 15
10.0
 25
10.0
 16
0.0
 26
0.0
 36
0.0
 17
0.0
 27
0.0
 37
0.0
 42
50.0
 43
0.0
 44
0.0
 45
326.70000000000005
 50
0.0
 51
0.0
 72
100
 90
557088
  1

281
0
 71
0
 74
0
110
0.0
120
0.0
130
0.0
111
1.0
121
0.0
131
0.0
112
0.0
122
1.0
132
0.0
 79
0
146
0.0
  0
VIEWPORT
  5
2F3
330
2EE
100
AcDbEntity
 67
1
  8
VIEWPORTS
100
AcDbViewport
 10
105.0
 20
148.5
 30
0.0
 40
210.0
 41
297.0
 68
1
 69
89
 12
525.0
 22
-1336.5
 13
0.0
 23
0.0
 14
10.0
 24
10.0
 15
10.0
 25
10.0
 16
0.0
 26
0.0
 36
0.0
 17
0.0
 27
0.0
 37
0.0
 42
50.0
 43
0.0
 44
0.0
 45
297.0
 50
0.0
 51
0.0
 72
100
 90
0
  1

281
0
 71
0
 74
0
110
0.0
120
0.0
130
0.0
111
1.0
121
0.0
131
0.0
112
0.0
122
1.0
132
0.0
 79
0
146
0.0
  0
ENDBLK
  5
2F0
330
2EE
100
AcDbEntity
  8
0
100
AcDbBlockEnd
  0
BLOCK
  5
2F5
330
2F4
100
AcDbEntity
  8
0
100
AcDbBlockBegin
  2
*Paper_Space43
 70
0
 10
0.0
 20
0.0
 30
0.0
  3
*Paper_Space43
  1

  0
VIEWPORT
  5
2F8
330
2F4
100
AcDbEntity
 67
1
  8
VIEWPORTS
100
AcDbViewport
 10
105.0
 20
148.5
 30
0.0
 40
231.00000000000003
 41
326.70000000000005
 68
1
 69
1
 12
105.0
 22
148.5
 13
0.0
 23
0.0
 14
10.0
 24
10.0
 15
10.0
 25
10.0
 16
0.0
 26
0.0
 36
0.0
 17
0.0
 27
0.0
 37
0.0
 42
50.0
 43
0.0
 44
0.0
 45
326.70000000000005
 50
0.0
 51
0.0
 72
100
 90
557088
  1

281
0
 71
0
 74
0
110
0.0
120
0.0
130
0.0
111
1.0
121
0.0
131
0.0
112
0.0
122
1.0
132
0.0
 79
0
146
0.0
  0
VIEWPORT
  5
2F9
330
2F4
100
AcDbEntity
 67
1
  8
VIEWPORTS
100
AcDbViewport
 10
105.0
 20
148.5
 30
0.0
 40
210.0
 41
297.0
 68
1
 69
91
 12
735.0
 22
-1336.5
 13
0.0
 23
0.0
 14
10.0
 24
10.0
 15
10.0
 25
10.0
 16
0.0
 26
0.0
 36
0.0
 17
0.0
 27
0.0
 37
0.0
 42
50.0
 43
0.0
 44
0.0
 45
297.0
 50
0.0
 51
0.0
 72
100
 90
0
  1

281
0
 71
0
 74
0
110
0.0
120
0.0
130
0.0
111
1.0
121
0.0
131
0.0
112
0.0
122
1.0
132
0.0
 79
0
146
0.0
  0
ENDBLK
  5
2F6
330
2F4
100
AcDbEntity
  8
0
100
AcDbBlockEnd
  0
BLOCK
  5
2FB
330
2FA
100
AcDbEntity
  8
0
100
AcDbBlockBegin
  2
*Paper_Space44
 70
0
 10
0.0
 20
0.0
 30
0.0
  3
*Paper_Space44
  1

  0
VIEWPORT
  5
2FE
330
2FA
100
AcDbEntity
 67
1
  8
VIEWPORTS
100
AcDbViewport
 10
105.0
 20
148.5
 30
0.0
 40
231.00000000000003
 41
326.70000000000005
 68
1
 69
1
 12
105.0
 22
148.5
 13
0.0
 23
0.0
 14
10.0
 24
10.0
 15
10.0
 25
10.0
 16
0.0
 26
0.0
 36
0.0
 17
0.0
 27
0.0
 37
0.0
 42
50.0
 43
0.0
 44
0.0
 45
326.70000000000005
 50
0.0
 51
0.0
 72
100
 90
557088
  1

281
0
 71
0
 74
0
110
0.0
120
0.0
130
0.0
111
1.0
121
0.0
131
0.0
112
0.0
122
1.0
132
0.0
 79
0
146
0.0
  0
VIEWPORT
  5
2FF
330
2FA
100
AcDbEntity
 67
1
  8
VIEWPORTS
100
AcDbViewport
 10
105.0
 20
148.5
 30
0.0
 40
210.0
 41
297.0
 68
1
 69
93
 12
945.0
 22
-1336.5
 13
0.0
 23
0.0
 14
10.0
 24
10.0
 15
10.0
 25
10.0
 16
0.0
 26
0.0
 36
0.0
 17
0.0
 27
0.0
 37
0.0
 42
50.0
 43
0.0
 44
0.0
 45
297.0
 50
0.0
 51
0.0
 72
100
 90
0
  1

281
0
 71
0
 74
0
110
0.0
120
0.0
130
0.0
111
1.0
121
0.0
131
0.0
112
0.0
122
1.0
132
0.0
 79
0
146
0.0
  0
ENDBLK
  5
2FC
330
2FA
100
AcDbEntity
  8
0
100
AcDbBlockEnd
  0
BLOCK
  5
301
330
300
100
AcDbEntity
  8
0
100
AcDbBlockBegin
  2
*Paper_Space45
 70
0
 10
0.0
 20
0.0
 30
0.0
  3
*Paper_Space45
  1

  0
VIEWPORT
  5
304
330
300
100
AcDbEntity
 67
1
  8
VIEWPORTS
100
AcDbViewport
 10
105.0
 20
148.5
 30
0.0
 40
231.00000000000003
 41
326.70000000000005
 68
1
 69
1
 12
105.0
 22
148.5
 13
0.0
 23
0.0
 14
10.0
 24
10.0
 15
10.0
 25
10.0
 16
0.0
 26
0.0
 36
0.0
 17
0.0
 27
0.0
 37
0.0
 42
50.0
 43
0.0
 44
0.0
 45
326.70000000000005
 50
0.0
 51
0.0
 72
100
 90
557088
  1

281
0
 71
0
 74
0
110
0.0
120
0.0
130
0.0
111
1.0
121
0.0
131
0.0
112
0.0
122
1.0
132
0.0
 79
0
146
0.0
  0
VIEWPORT
  5
305
330
300
100
AcDbEntity
 67
1
  8
VIEWPORTS
100
AcDbViewport
 10
105.0
 20
148.5
 30
0.0
 40
210.0
 41
297.0
 68
1
 69
95
 12
1155.0
 22
-1336.5
 13
0.0
 23
0.0
 14
10.0
 24
10.0
 15
10.0
 25
10.0
 16
0.0
 26
0.0
 36
0.0
 17
0.0
 27
0.0
 37
0.0
 42
50.0
 43
0.0
 44
0.0
 45
297.0
 50
0.0
 51
0.0
 72
100
 90
0
  1

281
0
 71
0
 74
0
110
0.0
120
0.0
130
0.0
111
1.0
121
0.0
131
0.0
112
0.0
122
1.0
132
0.0
 79
0
146
0.0
  0
ENDBLK
  5
302
330
300
100
AcDbEntity
  8
0
100
AcDbBlockEnd
  0
BLOCK
  5
307
330
306
100
AcDbEntity
  8
0
100
AcDbBlockBegin
  2
*Paper_Space46
 70
0
 10
0.0
 20
0.0
 30
0.0
  3
*Paper_Space46
  1

  0
VIEWPORT
  5
30A
330
306
100
AcDbEntity
 67
1
  8
VIEWPORTS
100
AcDbViewport
 10
105.0
 20
148.5
 30
0.0
 40
231.00000000000003
 41
326.70000000000005
 68
1
 69
1
 12
105.0
 22
148.5
 13
0.0
 23
0.0
 14
10.0
 24
10.0
 15
10.0
 25
10.0
 16
0.0
 26
0.0
 36
0.0
 17
0.0
 27
0.0
 37
0.0
 42
50.0
 43
0.0
 44
0.0
 45
326.70000000000005
 50
0.0
 51
0.0
 72
100
 90
557088
  1

281
0
 71
0
 74
0
110
0.0
120
0.0
130
0.0
111
1.0
121
0.0
131
0.0
112
0.0
122
1.0
132
0.0
 79
0
146
0.0
  0
VIEWPORT
  5
30B
330
306
100
AcDbEntity
 67
1
  8
VIEWPORTS
100
AcDbViewport
 10
105.0
 20
148.5
 30
0.0
 40
210.0
 41
297.0
 68
1
 69
97
 12
1365.0
 22
-1336.5
 13
0.0
 23
0.0
 14
10.0
 24
10.0
 15
10.0
 25
10.0
 16
0.0
 26
0.0
 36
0.0
 17
0.0
 27
0.0
 37
0.0
 42
50.0
 43
0.0
 44
0.0
 45
297.0
 50
0.0
 51
0.0
 72
100
 90
0
  1

281
0
 71
0
 74
0
110
0.0
120
0.0
130
0.0
111
1.0
121
0.0
131
0.0
112
0.0
122
1.0
132
0.0
 79
0
146
0.0
  0
ENDBLK
  5
308
330
306
100
AcDbEntity
  8
0
100
AcDbBlockEnd
  0
BLOCK
  5
30D
330
30C
100
AcDbEntity
  8
0
100
AcDbBlockBegin
  2
*Paper_Space47
 70
0
 10
0.0
 20
0.0
 30
0.0
  3
*Paper_Space47
  1

  0
VIEWPORT
  5
310
330
30C
100
AcDbEntity
 67
1
  8
VIEWPORTS
100
AcDbViewport
 10
105.0
 20
148.5
 30
0.0
 40
231.00000000000003
 41
326.70000000000005
 68
1
 69
1
 12
105.0
 22
148.5
 13
0.0
 23
0.0
 14
10.0
 24
10.0
 15
10.0
 25
10.0
 16
0.0
 26
0.0
 36
0.0
 17
0.0
 27
0.0
 37
0.0
 42
50.0
 43
0.0
 44
0.0
 45
326.70000000000005
 50
0.0
 51
0.0
 72
100
 90
557088
  1

281
0
 71
0
 74
0
110
0.0
120
0.0
130
0.0
111
1.0
121
0.0
131
0.0
112
0.0
122
1.0
132
0.0
 79
0
146
0.0
  0
VIEWPORT
  5
311
330
30C
100
AcDbEntity
 67
1
  8
VIEWPORTS
100
AcDbViewport
 10
105.0
 20
148.5
 30
0.0
 40
210.0
 41
297.0
 68
1
 69
99
 12
1575.0
 22
-1336.5
 13
0.0
 23
0.0
 14
10.0
 24
10.0
 15
10.0
 25
10.0
 16
0.0
 26
0.0
 36
0.0
 17
0.0
 27
0.0
 37
0.0
 42
50.0
 43
0.0
 44
0.0
 45
297.0
 50
0.0
 51
0.0
 72
100
 90
0
  1

281
0
 71
0
 74
0
110
0.0
120
0.0
130
0.0
111
1.0
121
0.0
131
0.0
112
0.0
122
1.0
132
0.0
 79
0
146
0.0
  0
ENDBLK
  5
30E
330
30C
100
AcDbEntity
  8
0
100
AcDbBlockEnd
  0
BLOCK
  5
313
330
312
100
AcDbEntity
  8
0
100
AcDbBlockBegin
  2
*Paper_Space48
 70
0
 10
0.0
 20
0.0
 30
0.0
  3
*Paper_Space48
  1

  0
VIEWPORT
  5
316
330
312
100
AcDbEntity
 67
1
  8
VIEWPORTS
100
AcDbViewport
 10
105.0
 20
148.5
 30
0.0
 40
231.00000000000003
 41
326.70000000000005
 68
1
 69
1
 12
105.0
 22
148.5
 13
0.0
 23
0.0
 14
10.0
 24
10.0
 15
10.0
 25
10.0
 16
0.0
 26
0.0
 36
0.0
 17
0.0
 27
0.0
 37
0.0
 42
50.0
 43
0.0
 44
0.0
 45
326.70000000000005
 50
0.0
 51
0.0
 72
100
 90
557088
  1

281
0
 71
0
 74
0
110
0.0
120
0.0
130
0.0
111
1.0
121
0.0
131
0.0
112
0.0
122
1.0
132
0.0
 79
0
146
0.0
  0
VIEWPORT
  5
317
330
312
100
AcDbEntity
 67
1
  8
VIEWPORTS
100
AcDbViewport
 10
105.0
 20
148.5
 30
0.0
 40
210.0
 41
297.0
 68
1
 69
101
 12
1785.0
 22
-1336.5
 13
0.0
 23
0.0
 14
10.0
 24
10.0
 15
10.0
 25
10.0
 16
0.0
 26
0.0
 36
0.0
 17
0.0
 27
0.0
 37
0.0
 42
50.0
 43
0.0
 44
0.0
 45
297.0
 50
0.0
 51
0.0
 72
100
 90
0
  1

281
0
 71
0
 74
0
110
0.0
120
0.0
130
0.0
111
1.0
121
0.0
131
0.0
112
0.0
122
1.0
132
0.0
 79
0
146
0.0
  0
ENDBLK
  5
314
330
312
100
AcDbEntity
  8
0
100
AcDbBlockEnd
  0
BLOCK
  5
319
330
318
100
AcDbEntity
  8
0
100
AcDbBlockBegin
  2
*Paper_Space49
 70
0
 10
0.0
 20
0.0
 30
0.0
  3
*Paper_Space49
  1

  0
VIEWPORT
  5
31C
330
318
100
AcDbEntity
 67
1
  8
VIEWPORTS
100
AcDbViewport
 10
105.0
 20
148.5
 30
0.0
 40
231.00000000000003
 41
326.70000000000005
 68
1
 69
1
 12
105.0
 22
148.5
 13
0.0
 23
0.0
 14
10.0
 24
10.0
 15
10.0
 25
10.0
 16
0.0
 26
0.0
 36
0.0
 17
0.0
 27
0.0
 37
0.0
 42
50.0
 43
0.0
 44
0.0
 45
326.70000000000005
 50
0.0
 51
0.0
 72
100
 90
557088
  1

281
0
 71
0
 74
0
110
0.0
120
0.0
130
0.0
111
1.0
121
0.0
131
0.0
112
0.0
122
1.0
132
0.0
 79
0
146
0.0
  0
VIEWPORT
  5
31D
330
318
100
AcDbEntity
 67
1
  8
VIEWPORTS
100
AcDbViewport
 10
105.0
 20
148.5
 30
0.0
 40
210.0
 41
297.0
 68
1
 69
103
 12
1995.0
 22
-1336.5
 13
0.0
 23
0.0
 14
10.0
 24
10.0
 15
10.0
 25
10.0
 16
0.0
 26
0.0
 36
0.0
 17
0.0
 27
0.0
 37
0.0
 42
50.0
 43
0.0
 44
0.0
 45
297.0
 50
0.0
 51
0.0
 72
100
 90
0
  1

281
0
 71
0
 74
0
110
0.0
120
0.0
130
0.0
111
1.0
121
0.0
131
0.0
112
0.0
122
1.0
132
0.0
 79
0
146
0.0
  0
ENDBLK
  5
31A
330
318
100
AcDbEntity
  8
0
100
AcDbBlockEnd
  0
ENDSEC
  0
SECTION
  2
ENTITIES
  0
LINE
  5
2D
330
17
100
AcDbEntity
  8
0
 62
9
100
AcDbLine
 10
0.0
 20
0.0
 30
0.0
 11
210.0
 21
0.0
 31
0.0
  0
LINE
  5
2E
330
17
100
AcDbEntity
  8
0
 62
9
100
AcDbLine
 10
0.0
 20
-297.0
 30
0.0
 11
210.0
 21
-297.0
 31
0.0
  0
LINE
  5
2F
330
17
100
AcDbEntity
  8
0
 62
9
100
AcDbLine
 10
0.0
 20
0.0
 30
0.0
 11
0.0
 21
-297.0
 31
0.0
  0
LINE
  5
30
330
17
100
AcDbEntity
  8
0
 62
9
100
AcDbLine
 10
210.0
 20
0.0
 30
0.0
 11
210.0
 21
-297.0
 31
0.0
  0
LINE
  5
31
330
17
100
AcDbEntity
  8
0
 62
9
100
AcDbLine
 10
80.0
 20
-123.5
 30
0.0
 11
130.0
 21
-123.5
 31
0.0
  0
LINE
  5
32
330
17
100
AcDbEntity
  8
0
 62
9
100
AcDbLine
 10
130.0
 20
-173.5
 30
0.0
 11
130.0
 21
-123.5
 31
0.0
  0
LINE
  5
33
330
17
100
AcDbEntity
  8
0
 62
9
100
AcDbLine
 10
80.0
 20
-123.5
 30
0.0
 11
80.0
 21
-173.5
 31
0.0
  0
LINE
  5
34
330
17
100
AcDbEntity
  8
0
 62
9
100
AcDbLine
 10
80.0
 20
-173.5
 30
0.0
 11
130.0
 21
-173.5
 31
0.0
  0
TEXT
  5
35
330
17
100
AcDbEntity
  8
TEXTLAYER
 62
1
100
AcDbText
 10
105.0
 20
-148.5
 30
0.0
 40
10.0
  1
1-1
 72
1
 11
105.0
 21
-148.5
 31
0.0
100
AcDbText
  0
LINE
  5
36
330
17
100
AcDbEntity
  8
0
 62
9
100
AcDbLine
 10
210.0
 20
0.0
 30
0.0
 11
420.0
 21
0.0
 31
0.0
  0
LINE
  5
37
330
17
100
AcDbEntity
  8
0
 62
9
100
AcDbLine
 10
210.0
 20
-297.0
 30
0.0
 11
420.0
 21
-297.0
 31
0.0
  0
LINE
  5
38
330
17
100
AcDbEntity
  8
0
 62
9
100
AcDbLine
 10
210.0
 20
0.0
 30
0.0
 11
210.0
 21
-297.0
 31
0.0
  0
LINE
  5
39
330
17
100
AcDbEntity
  8
0
 62
9
100
AcDbLine
 10
420.0
 20
0.0
 30
0.0
 11
420.0
 21
-297.0
 31
0.0
  0
LINE
  5
3A
330
17
100
AcDbEntity
  8
0
 62
9
100
AcDbLine
 10
290.0
 20
-123.5
 30
0.0
 11
340.0
 21
-123.5
 31
0.0
  0
LINE
  5
3B
330
17
100
AcDbEntity
  8
0
 62
9
100
AcDbLine
 10
340.0
 20
-173.5
 30
0.0
 11
340.0
 21
-123.5
 31
0.0
  0
LINE
  5
3C
330
17
100
AcDbEntity
  8
0
 62
9
100
AcDbLine
 10
290.0
 20
-123.5
 30
0.0
 11
290.0
 21
-173.5
 31
0.0
  0
LINE
  5
3D
330
17
100
AcDbEntity
  8
0
 62
9
100
AcDbLine
 10
290.0
 20
-173.5
 30
0.0
 11
340.0
 21
-173.5
 31
0.0
  0
TEXT
  5
3E
330
17
100
AcDbEntity
  8
TEXTLAYER
 62
1
100
AcDbText
 10
315.0
 20
-148.5
 30
0.0
 40
10.0
  1
1-2
 72
1
 11
315.0
 21
-148.5
 31
0.0
100
AcDbText
  0
LINE
  5
3F
330
17
100
AcDbEntity
  8
0
 62
9
100
AcDbLine
 10
420.0
 20
0.0
 30
0.0
 11
630.0
 21
0.0
 31
0.0
  0
LINE
  5
40
330
17
100
AcDbEntity
  8
0
 62
9
100
AcDbLine
 10
420.0
 20
-297.0
 30
0.0
 11
630.0
 21
-297.0
 31
0.0
  0
LINE
  5
41
330
17
100
AcDbEntity
  8
0
 62
9
100
AcDbLine
 10
420.0
 20
0.0
 30
0.0
 11
420.0
 21
-297.0
 31
0.0
  0
LINE
  5
42
330
17
100
AcDbEntity
  8
0
 62
9
100
AcDbLine
 10
630.0
 20
0.0
 30
0.0
 11
630.0
 21
-297.0
 31
0.0
  0
LINE
  5
43
330
17
100
AcDbEntity
  8
0
 62
9
100
AcDbLine
 10
500.0
 20
-123.5
 30
0.0
 11
550.0
 21
-123.5
 31
0.0
  0
LINE
  5
44
330
17
100
AcDbEntity
  8
0
 62
9
100
AcDbLine
 10
550.0
 20
-173.5
 30
0.0
 11
550.0
 21
-123.5
 31
0.0
  0
LINE
  5
45
330
17
100
AcDbEntity
  8
0
 62
9
100
AcDbLine
 10
500.0
 20
-123.5
 30
0.0
 11
500.0
 21
-173.5
 31
0.0
  0
LINE
  5
46
330
17
100
AcDbEntity
  8
0
 62
9
100
AcDbLine
 10
500.0
 20
-173.5
 30
0.0
 11
550.0
 21
-173.5
 31
0.0
  0
TEXT
  5
47
330
17
100
AcDbEntity
  8
TEXTLAYER
 62
1
100
AcDbText
 10
525.0
 20
-148.5
 30
0.0
 40
10.0
  1
1-3
 72
1
 11
525.0
 21
-148.5
 31
0.0
100
AcDbText
  0
LINE
  5
48
330
17
100
AcDbEntity
  8
0
 62
9
100
AcDbLine
 10
630.0
 20
0.0
 30
0.0
 11
840.0
 21
0.0
 31
0.0
  0
LINE
  5
49
330
17
100
AcDbEntity
  8
0
 62
9
100
AcDbLine
 10
630.0
 20
-297.0
 30
0.0
 11
840.0
 21
-297.0
 31
0.0
  0
LINE
  5
4A
330
17
100
AcDbEntity
  8
0
 62
9
100
AcDbLine
 10
630.0
 20
0.0
 30
0.0
 11
630.0
 21
-297.0
 31
0.0
  0
LINE
  5
4B
330
17
100
AcDbEntity
  8
0
 62
9
100
AcDbLine
 10
840.0
 20
0.0
 30
0.0
 11
840.0
 21
-297.0
 31
0.0
  0
LINE
  5
4C
330
17
100
AcDbEntity
  8
0
 62
9
100
AcDbLine
 10
710.0
 20
-123.5
 30
0.0
 11
760.0
 21
-123.5
 31
0.0
  0
LINE
  5
4D
330
17
100
AcDbEntity
  8
0
 62
9
100
AcDbLine
 10
760.0
 20
-173.5
 30
0.0
 11
760.0
 21
-123.5
 31
0.0
  0
LINE
  5
4E
330
17
100
AcDbEntity
  8
0
 62
9
100
AcDbLine
 10
710.0
 20
-123.5
 30
0.0
 11
710.0
 21
-173.5
 31
0.0
  0
LINE
  5
4F
330
17
100
AcDbEntity
  8
0
 62
9
100
AcDbLine
 10
710.0
 20
-173.5
 30
0.0
 11
760.0
 21
-173.5
 31
0.0
  0
TEXT
  5
50
330
17
100
AcDbEntity
  8
TEXTLAYER
 62
1
100
AcDbText
 10
735.0
 20
-148.5
 30
0.0
 40
10.0
  1
1-4
 72
1
 11
735.0
 21
-148.5
 31
0.0
100
AcDbText
  0
LINE
  5
51
330
17
100
AcDbEntity
  8
0
 62
9
100
AcDbLine
 10
840.0
 20
0.0
 30
0.0
 11
1050.0
 21
0.0
 31
0.0
  0
LINE
  5
52
330
17
100
AcDbEntity
  8
0
 62
9
100
AcDbLine
 10
840.0
 20
-297.0
 30
0.0
 11
1050.0
 21
-297.0
 31
0.0
  0
LINE
  5
53
330
17
100
AcDbEntity
  8
0
 62
9
100
AcDbLine
 10
840.0
 20
0.0
 30
0.0
 11
840.0
 21
-297.0
 31
0.0
  0
LINE
  5
54
330
17
100
AcDbEntity
  8
0
 62
9
100
AcDbLine
 10
1050.0
 20
0.0
 30
0.0
 11
1050.0
 21
-297.0
 31
0.0
  0
LINE
  5
55
330
17
100
AcDbEntity
  8
0
 62
9
100
AcDbLine
 10
920.0
 20
-123.5
 30
0.0
 11
970.0
 21
-123.5
 31
0.0
  0
LINE
  5
56
330
17
100
AcDbEntity
  8
0
 62
9
100
AcDbLine
 10
970.0
 20
-173.5
 30
0.0
 11
970.0
 21
-123.5
 31
0.0
  0
LINE
  5
57
330
17
100
AcDbEntity
  8
0
 62
9
100
AcDbLine
 10
920.0
 20
-123.5
 30
0.0
 11
920.0
 21
-173.5
 31
0.0
  0
LINE
  5
58
330
17
100
AcDbEntity
  8
0
 62
9
100
AcDbLine
 10
920.0
 20
-173.5
 30
0.0
 11
970.0
 21
-173.5
 31
0.0
  0
TEXT
  5
59
330
17
100
AcDbEntity
  8
TEXTLAYER
 62
1
100
AcDbText
 10
945.0
 20
-148.5
 30
0.0
 40
10.0
  1
1-5
 72
1
 11
945.0
 21
-148.5
 31
0.0
100
AcDbText
  0
LINE
  5
5A
330
17
100
AcDbEntity
  8
0
 62
9
100
AcDbLine
 10
1050.0
 20
0.0
 30
0.0
 11
1260.0
 21
0.0
 31
0.0
  0
LINE
  5
5B
330
17
100
AcDbEntity
  8
0
 62
9
100
AcDbLine
 10
1050.0
 20
-297.0
 30
0.0
 11
1260.0
 21
-297.0
 31
0.0
  0
LINE
  5
5C
330
17
100
AcDbEntity
  8
0
 62
9
100
AcDbLine
 10
1050.0
 20
0.0
 30
0.0
 11
1050.0
 21
-297.0
 31
0.0
  0
LINE
  5
5D
330
17
100
AcDbEntity
  8
0
 62
9
100
AcDbLine
 10
1260.0
 20
0.0
 30
0.0
 11
1260.0
 21
-297.0
 31
0.0
  0
LINE
  5
5E
330
17
100
AcDbEntity
  8
0
 62
9
100
AcDbLine
 10
1130.0
 20
-123.5
 30
0.0
 11
1180.0
 21
-123.5
 31
0.0
  0
LINE
  5
5F
330
17
100
AcDbEntity
  8
0
 62
9
100
AcDbLine
 10
1180.0
 20
-173.5
 30
0.0
 11
1180.0
 21
-123.5
 31
0.0
  0
LINE
  5
60
330
17
100
AcDbEntity
  8
0
 62
9
100
AcDbLine
 10
1130.0
 20
-123.5
 30
0.0
 11
1130.0
 21
-173.5
 31
0.0
  0
LINE
  5
61
330
17
100
AcDbEntity
  8
0
 62
9
100
AcDbLine
 10
1130.0
 20
-173.5
 30
0.0
 11
1180.0
 21
-173.5
 31
0.0
  0
TEXT
  5
62
330
17
100
AcDbEntity
  8
TEXTLAYER
 62
1
100
AcDbText
 10
1155.0
 20
-148.5
 30
0.0
 40
10.0
  1
1-6
 72
1
 11
1155.0
 21
-148.5
 31
0.0
100
AcDbText
  0
LINE
  5
63
330
17
100
AcDbEntity
  8
0
 62
9
100
AcDbLine
 10
1260.0
 20
0.0
 30
0.0
 11
1470.0
 21
0.0
 31
0.0
  0
LINE
  5
64
330
17
100
AcDbEntity
  8
0
 62
9
100
AcDbLine
 10
1260.0
 20
-297.0
 30
0.0
 11
1470.0
 21
-297.0
 31
0.0
  0
LINE
  5
65
330
17
100
AcDbEntity
  8
0
 62
9
100
AcDbLine
 10
1260.0
 20
0.0
 30
0.0
 11
1260.0
 21
-297.0
 31
0.0
  0
LINE
  5
66
330
17
100
AcDbEntity
  8
0
 62
9
100
AcDbLine
 10
1470.0
 20
0.0
 30
0.0
 11
1470.0
 21
-297.0
 31
0.0
  0
LINE
  5
67
330
17
100
AcDbEntity
  8
0
 62
9
100
AcDbLine
 10
1340.0
 20
-123.5
 30
0.0
 11
1390.0
 21
-123.5
 31
0.0
  0
LINE
  5
68
330
17
100
AcDbEntity
  8
0
 62
9
100
AcDbLine
 10
1390.0
 20
-173.5
 30
0.0
 11
1390.0
 21
-123.5
 31
0.0
  0
LINE
  5
69
330
17
100
AcDbEntity
  8
0
 62
9
100
AcDbLine
 10
1340.0
 20
-123.5
 30
0.0
 11
1340.0
 21
-173.5
 31
0.0
  0
LINE
  5
6A
330
17
100
AcDbEntity
  8
0
 62
9
100
AcDbLine
 10
1340.0
 20
-173.5
 30
0.0
 11
1390.0
 21
-173.5
 31
0.0
  0
TEXT
  5
6B
330
17
100
AcDbEntity
  8
TEXTLAYER
 62
1
100
AcDbText
 10
1365.0
 20
-148.5
 30
0.0
 40
10.0
  1
1-7
 72
1
 11
1365.0
 21
-148.5
 31
0.0
100
AcDbText
  0
LINE
  5
6C
330
17
100
AcDbEntity
  8
0
 62
9
100
AcDbLine
 10
1470.0
 20
0.0
 30
0.0
 11
1680.0
 21
0.0
 31
0.0
  0
LINE
  5
6D
330
17
100
AcDbEntity
  8
0
 62
9
100
AcDbLine
 10
1470.0
 20
-297.0
 30
0.0
 11
1680.0
 21
-297.0
 31
0.0
  0
LINE
  5
6E
330
17
100
AcDbEntity
  8
0
 62
9
100
AcDbLine
 10
1470.0
 20
0.0
 30
0.0
 11
1470.0
 21
-297.0
 31
0.0
  0
LINE
  5
6F
330
17
100
AcDbEntity
  8
0
 62
9
100
AcDbLine
 10
1680.0
 20
0.0
 30
0.0
 11
1680.0
 21
-297.0
 31
0.0
  0
LINE
  5
70
330
17
100
AcDbEntity
  8
0
 62
9
100
AcDbLine
 10
1550.0
 20
-123.5
 30
0.0
 11
1600.0
 21
-123.5
 31
0.0
  0
LINE
  5
71
330
17
100
AcDbEntity
  8
0
 62
9
100
AcDbLine
 10
1600.0
 20
-173.5
 30
0.0
 11
1600.0
 21
-123.5
 31
0.0
  0
LINE
  5
72
330
17
100
AcDbEntity
  8
0
 62
9
100
AcDbLine
 10
1550.0
 20
-123.5
 30
0.0
 11
1550.0
 21
-173.5
 31
0.0
  0
LINE
  5
73
330
17
100
AcDbEntity
  8
0
 62
9
100
AcDbLine
 10
1550.0
 20
-173.5
 30
0.0
 11
1600.0
 21
-173.5
 31
0.0
  0
TEXT
  5
74
330
17
100
AcDbEntity
  8
TEXTLAYER
 62
1
100
AcDbText
 10
1575.0
 20
-148.5
 30
0.0
 40
10.0
  1
1-8
 72
1
 11
1575.0
 21
-148.5
 31
0.0
100
AcDbText
  0
LINE
  5
75
330
17
100
AcDbEntity
  8
0
 62
9
100
AcDbLine
 10
1680.0
 20
0.0
 30
0.0
 11
1890.0
 21
0.0
 31
0.0
  0
LINE
  5
76
330
17
100
AcDbEntity
  8
0
 62
9
100
AcDbLine
 10
1680.0
 20
-297.0
 30
0.0
 11
1890.0
 21
-297.0
 31
0.0
  0
LINE
  5
77
330
17
100
AcDbEntity
  8
0
 62
9
100
AcDbLine
 10
1680.0
 20
0.0
 30
0.0
 11
1680.0
 21
-297.0
 31
0.0
  0
LINE
  5
78
330
17
100
AcDbEntity
  8
0
 62
9
100
AcDbLine
 10
1890.0
 20
0.0
 30
0.0
 11
1890.0
 21
-297.0
 31
0.0
  0
LINE
  5
79
330
17
100
AcDbEntity
  8
0
 62
9
100
AcDbLine
 10
1760.0
 20
-123.5
 30
0.0
 11
1810.0
 21
-123.5
 31
0.0
  0
LINE
  5
7A
330
17
100
AcDbEntity
  8
0
 62
9
100
AcDbLine
 10
1810.0
 20
-173.5
 30
0.0
 11
1810.0
 21
-123.5
 31
0.0
  0
LINE
  5
7B
330
17
100
AcDbEntity
  8
0
 62
9
100
AcDbLine
 10
1760.0
 20
-123.5
 30
0.0
 11
1760.0
 21
-173.5
 31
0.0
  0
LINE
  5
7C
330
17
100
AcDbEntity
  8
0
 62
9
100
AcDbLine
 10
1760.0
 20
-173.5
 30
0.0
 11
1810.0
 21
-173.5
 31
0.0
  0
TEXT
  5
7D
330
17
100
AcDbEntity
  8
TEXTLAYER
 62
1
100
AcDbText
 10
1785.0
 20
-148.5
 30
0.0
 40
10.0
  1
1-9
 72
1
 11
1785.0
 21
-148.5
 31
0.0
100
AcDbText
  0
LINE
  5
7E
330
17
100
AcDbEntity
  8
0
 62
9
100
AcDbLine
 10
1890.0
 20
0.0
 30
0.0
 11
2100.0
 21
0.0
 31
0.0
  0
LINE
  5
7F
330
17
100
AcDbEntity
  8
0
 62
9
100
AcDbLine
 10
1890.0
 20
-297.0
 30
0.0
 11
2100.0
 21
-297.0
 31
0.0
  0
LINE
  5
80
330
17
100
AcDbEntity
  8
0
 62
9
100
AcDbLine
 10
1890.0
 20
0.0
 30
0.0
 11
1890.0
 21
-297.0
 31
0.0
  0
LINE
  5
81
330
17
100
AcDbEntity
  8
0
 62
9
100
AcDbLine
 10
2100.0
 20
0.0
 30
0.0
 11
2100.0
 21
-297.0
 31
0.0
  0
LINE
  5
82
330
17
100
AcDbEntity
  8
0
 62
9
100
AcDbLine
 10
1970.0
 20
-123.5
 30
0.0
 11
2020.0
 21
-123.5
 31
0.0
  0
LINE
  5
83
330
17
100
AcDbEntity
  8
0
 62
9
100
AcDbLine
 10
2020.0
 20
-173.5
 30
0.0
 11
2020.0
 21
-123.5
 31
0.0
  0
LINE
  5
84
330
17
100
AcDbEntity
  8
0
 62
9
100
AcDbLine
 10
1970.0
 20
-123.5
 30
0.0
 11
1970.0
 21
-173.5
 31
0.0
  0
LINE
  5
85
330
17
100
AcDbEntity
  8
0
 62
9
100
AcDbLine
 10
1970.0
 20
-173.5
 30
0.0
 11
2020.0
 21
-173.5
 31
0.0
  0
TEXT
  5
86
330
17
100
AcDbEntity
  8
TEXTLAYER
 62
1
100
AcDbText
 10
1995.0
 20
-148.5
 30
0.0
 40
10.0
  1
1-10
 72
1
 11
1995.0
 21
-148.5
 31
0.0
100
AcDbText
  0
LINE
  5
87
330
17
100
AcDbEntity
  8
0
 62
9
100
AcDbLine
 10
0.0
 20
-297.0
 30
0.0
 11
210.0
 21
-297.0
 31
0.0
  0
LINE
  5
88
330
17
100
AcDbEntity
  8
0
 62
9
100
AcDbLine
 10
0.0
 20
-594.0
 30
0.0
 11
210.0
 21
-594.0
 31
0.0
  0
LINE
  5
89
330
17
100
AcDbEntity
  8
0
 62
9
100
AcDbLine
 10
0.0
 20
-297.0
 30
0.0
 11
0.0
 21
-594.0
 31
0.0
  0
LINE
  5
8A
330
17
100
AcDbEntity
  8
0
 62
9
100
AcDbLine
 10
210.0
 20
-297.0
 30
0.0
 11
210.0
 21
-594.0
 31
0.0
  0
LINE
  5
8B
330
17
100
AcDbEntity
  8
0
 62
9
100
AcDbLine
 10
80.0
 20
-420.5
 30
0.0
 11
130.0
 21
-420.5
 31
0.0
  0
LINE
  5
8C
330
17
100
AcDbEntity
  8
0
 62
9
100
AcDbLine
 10
130.0
 20
-470.5
 30
0.0
 11
130.0
 21
-420.5
 31
0.0
  0
LINE
  5
8D
330
17
100
AcDbEntity
  8
0
 62
9
100
AcDbLine
 10
80.0
 20
-420.5
 30
0.0
 11
80.0
 21
-470.5
 31
0.0
  0
LINE
  5
8E
330
17
100
AcDbEntity
  8
0
 62
9
100
AcDbLine
 10
80.0
 20
-470.5
 30
0.0
 11
130.0
 21
-470.5
 31
0.0
  0
TEXT
  5
8F
330
17
100
AcDbEntity
  8
TEXTLAYER
 62
1
100
AcDbText
 10
105.0
 20
-445.5
 30
0.0
 40
10.0
  1
2-1
 72
1
 11
105.0
 21
-445.5
 31
0.0
100
AcDbText
  0
LINE
  5
90
330
17
100
AcDbEntity
  8
0
 62
9
100
AcDbLine
 10
210.0
 20
-297.0
 30
0.0
 11
420.0
 21
-297.0
 31
0.0
  0
LINE
  5
91
330
17
100
AcDbEntity
  8
0
 62
9
100
AcDbLine
 10
210.0
 20
-594.0
 30
0.0
 11
420.0
 21
-594.0
 31
0.0
  0
LINE
  5
92
330
17
100
AcDbEntity
  8
0
 62
9
100
AcDbLine
 10
210.0
 20
-297.0
 30
0.0
 11
210.0
 21
-594.0
 31
0.0
  0
LINE
  5
93
330
17
100
AcDbEntity
  8
0
 62
9
100
AcDbLine
 10
420.0
 20
-297.0
 30
0.0
 11
420.0
 21
-594.0
 31
0.0
  0
LINE
  5
94
330
17
100
AcDbEntity
  8
0
 62
9
100
AcDbLine
 10
290.0
 20
-420.5
 30
0.0
 11
340.0
 21
-420.5
 31
0.0
  0
LINE
  5
95
330
17
100
AcDbEntity
  8
0
 62
9
100
AcDbLine
 10
340.0
 20
-470.5
 30
0.0
 11
340.0
 21
-420.5
 31
0.0
  0
LINE
  5
96
330
17
100
AcDbEntity
  8
0
 62
9
100
AcDbLine
 10
290.0
 20
-420.5
 30
0.0
 11
290.0
 21
-470.5
 31
0.0
  0
LINE
  5
97
330
17
100
AcDbEntity
  8
0
 62
9
100
AcDbLine
 10
290.0
 20
-470.5
 30
0.0
 11
340.0
 21
-470.5
 31
0.0
  0
TEXT
  5
98
330
17
100
AcDbEntity
  8
TEXTLAYER
 62
1
100
AcDbText
 10
315.0
 20
-445.5
 30
0.0
 40
10.0
  1
2-2
 72
1
 11
315.0
 21
-445.5
 31
0.0
100
AcDbText
  0
LINE
  5
99
330
17
100
AcDbEntity
  8
0
 62
9
100
AcDbLine
 10
420.0
 20
-297.0
 30
0.0
 11
630.0
 21
-297.0
 31
0.0
  0
LINE
  5
9A
330
17
100
AcDbEntity
  8
0
 62
9
100
AcDbLine
 10
420.0
 20
-594.0
 30
0.0
 11
630.0
 21
-594.0
 31
0.0
  0
LINE
  5
9B
330
17
100
AcDbEntity
  8
0
 62
9
100
AcDbLine
 10
420.0
 20
-297.0
 30
0.0
 11
420.0
 21
-594.0
 31
0.0
  0
LINE
  5
9C
330
17
100
AcDbEntity
  8
0
 62
9
100
AcDbLine
 10
630.0
 20
-297.0
 30
0.0
 11
630.0
 21
-594.0
 31
0.0
  0
LINE
  5
9D
330
17
100
AcDbEntity
  8
0
 62
9
100
AcDbLine
 10
500.0
 20
-420.5
 30
0.0
 11
550.0
 21
-420.5
 31
0.0
  0
LINE
  5
9E
330
17
100
AcDbEntity
  8
0
 62
9
100
AcDbLine
 10
550.0
 20
-470.5
 30
0.0
 11
550.0
 21
-420.5
 31
0.0
  0
LINE
  5
9F
330
17
100
AcDbEntity
  8
0
 62
9
100
AcDbLine
 10
500.0
 20
-420.5
 30
0.0
 11
500.0
 21
-470.5
 31
0.0
  0
LINE
  5
A0
330
17
100
AcDbEntity
  8
0
 62
9
100
AcDbLine
 10
500.0
 20
-470.5
 30
0.0
 11
550.0
 21
-470.5
 31
0.0
  0
TEXT
  5
A1
330
17
100
AcDbEntity
  8
TEXTLAYER
 62
1
100
AcDbText
 10
525.0
 20
-445.5
 30
0.0
 40
10.0
  1
2-3
 72
1
 11
525.0
 21
-445.5
 31
0.0
100
AcDbText
  0
LINE
  5
A2
330
17
100
AcDbEntity
  8
0
 62
9
100
AcDbLine
 10
630.0
 20
-297.0
 30
0.0
 11
840.0
 21
-297.0
 31
0.0
  0
LINE
  5
A3
330
17
100
AcDbEntity
  8
0
 62
9
100
AcDbLine
 10
630.0
 20
-594.0
 30
0.0
 11
840.0
 21
-594.0
 31
0.0
  0
LINE
  5
A4
330
17
100
AcDbEntity
  8
0
 62
9
100
AcDbLine
 10
630.0
 20
-297.0
 30
0.0
 11
630.0
 21
-594.0
 31
0.0
  0
LINE
  5
A5
330
17
100
AcDbEntity
  8
0
 62
9
100
AcDbLine
 10
840.0
 20
-297.0
 30
0.0
 11
840.0
 21
-594.0
 31
0.0
  0
LINE
  5
A6
330
17
100
AcDbEntity
  8
0
 62
9
100
AcDbLine
 10
710.0
 20
-420.5
 30
0.0
 11
760.0
 21
-420.5
 31
0.0
  0
LINE
  5
A7
330
17
100
AcDbEntity
  8
0
 62
9
100
AcDbLine
 10
760.0
 20
-470.5
 30
0.0
 11
760.0
 21
-420.5
 31
0.0
  0
LINE
  5
A8
330
17
100
AcDbEntity
  8
0
 62
9
100
AcDbLine
 10
710.0
 20
-420.5
 30
0.0
 11
710.0
 21
-470.5
 31
0.0
  0
LINE
  5
A9
330
17
100
AcDbEntity
  8
0
 62
9
100
AcDbLine
 10
710.0
 20
-470.5
 30
0.0
 11
760.0
 21
-470.5
 31
0.0
  0
TEXT
  5
AA
330
17
100
AcDbEntity
  8
TEXTLAYER
 62
1
100
AcDbText
 10
735.0
 20
-445.5
 30
0.0
 40
10.0
  1
2-4
 72
1
 11
735.0
 21
-445.5
 31
0.0
100
AcDbText
  0
LINE
  5
AB
330
17
100
AcDbEntity
  8
0
 62
9
100
AcDbLine
 10
840.0
 20
-297.0
 30
0.0
 11
1050.0
 21
-297.0
 31
0.0
  0
LINE
  5
AC
330
17
100
AcDbEntity
  8
0
 62
9
100
AcDbLine
 10
840.0
 20
-594.0
 30
0.0
 11
1050.0
 21
-594.0
 31
0.0
  0
LINE
  5
AD
330
17
100
AcDbEntity
  8
0
 62
9
100
AcDbLine
 10
840.0
 20
-297.0
 30
0.0
 11
840.0
 21
-594.0
 31
0.0
  0
LINE
  5
AE
330
17
100
AcDbEntity
  8
0
 62
9
100
AcDbLine
 10
1050.0
 20
-297.0
 30
0.0
 11
1050.0
 21
-594.0
 31
0.0
  0
LINE
  5
AF
330
17
100
AcDbEntity
  8
0
 62
9
100
AcDbLine
 10
920.0
 20
-420.5
 30
0.0
 11
970.0
 21
-420.5
 31
0.0
  0
LINE
  5
B0
330
17
100
AcDbEntity
  8
0
 62
9
100
AcDbLine
 10
970.0
 20
-470.5
 30
0.0
 11
970.0
 21
-420.5
 31
0.0
  0
LINE
  5
B1
330
17
100
AcDbEntity
  8
0
 62
9
100
AcDbLine
 10
920.0
 20
-420.5
 30
0.0
 11
920.0
 21
-470.5
 31
0.0
  0
LINE
  5
B2
330
17
100
AcDbEntity
  8
0
 62
9
100
AcDbLine
 10
920.0
 20
-470.5
 30
0.0
 11
970.0
 21
-470.5
 31
0.0
  0
TEXT
  5
B3
330
17
100
AcDbEntity
  8
TEXTLAYER
 62
1
100
AcDbText
 10
945.0
 20
-445.5
 30
0.0
 40
10.0
  1
2-5
 72
1
 11
945.0
 21
-445.5
 31
0.0
100
AcDbText
  0
LINE
  5
B4
330
17
100
AcDbEntity
  8
0
 62
9
100
AcDbLine
 10
1050.0
 20
-297.0
 30
0.0
 11
1260.0
 21
-297.0
 31
0.0
  0
LINE
  5
B5
330
17
100
AcDbEntity
  8
0
 62
9
100
AcDbLine
 10
1050.0
 20
-594.0
 30
0.0
 11
1260.0
 21
-594.0
 31
0.0
  0
LINE
  5
B6
330
17
100
AcDbEntity
  8
0
 62
9
100
AcDbLine
 10
1050.0
 20
-297.0
 30
0.0
 11
1050.0
 21
-594.0
 31
0.0
  0
LINE
  5
B7
330
17
100
AcDbEntity
  8
0
 62
9
100
AcDbLine
 10
1260.0
 20
-297.0
 30
0.0
 11
1260.0
 21
-594.0
 31
0.0
  0
LINE
  5
B8
330
17
100
AcDbEntity
  8
0
 62
9
100
AcDbLine
 10
1130.0
 20
-420.5
 30
0.0
 11
1180.0
 21
-420.5
 31
0.0
  0
LINE
  5
B9
330
17
100
AcDbEntity
  8
0
 62
9
100
AcDbLine
 10
1180.0
 20
-470.5
 30
0.0
 11
1180.0
 21
-420.5
 31
0.0
  0
LINE
  5
BA
330
17
100
AcDbEntity
  8
0
 62
9
100
AcDbLine
 10
1130.0
 20
-420.5
 30
0.0
 11
1130.0
 21
-470.5
 31
0.0
  0
LINE
  5
BB
330
17
100
AcDbEntity
  8
0
 62
9
100
AcDbLine
 10
1130.0
 20
-470.5
 30
0.0
 11
1180.0
 21
-470.5
 31
0.0
  0
TEXT
  5
BC
330
17
100
AcDbEntity
  8
TEXTLAYER
 62
1
100
AcDbText
 10
1155.0
 20
-445.5
 30
0.0
 40
10.0
  1
2-6
 72
1
 11
1155.0
 21
-445.5
 31
0.0
100
AcDbText
  0
LINE
  5
BD
330
17
100
AcDbEntity
  8
0
 62
9
100
AcDbLine
 10
1260.0
 20
-297.0
 30
0.0
 11
1470.0
 21
-297.0
 31
0.0
  0
LINE
  5
BE
330
17
100
AcDbEntity
  8
0
 62
9
100
AcDbLine
 10
1260.0
 20
-594.0
 30
0.0
 11
1470.0
 21
-594.0
 31
0.0
  0
LINE
  5
BF
330
17
100
AcDbEntity
  8
0
 62
9
100
AcDbLine
 10
1260.0
 20
-297.0
 30
0.0
 11
1260.0
 21
-594.0
 31
0.0
  0
LINE
  5
C0
330
17
100
AcDbEntity
  8
0
 62
9
100
AcDbLine
 10
1470.0
 20
-297.0
 30
0.0
 11
1470.0
 21
-594.0
 31
0.0
  0
LINE
  5
C1
330
17
100
AcDbEntity
  8
0
 62
9
100
AcDbLine
 10
1340.0
 20
-420.5
 30
0.0
 11
1390.0
 21
-420.5
 31
0.0
  0
LINE
  5
C2
330
17
100
AcDbEntity
  8
0
 62
9
100
AcDbLine
 10
1390.0
 20
-470.5
 30
0.0
 11
1390.0
 21
-420.5
 31
0.0
  0
LINE
  5
C3
330
17
100
AcDbEntity
  8
0
 62
9
100
AcDbLine
 10
1340.0
 20
-420.5
 30
0.0
 11
1340.0
 21
-470.5
 31
0.0
  0
LINE
  5
C4
330
17
100
AcDbEntity
  8
0
 62
9
100
AcDbLine
 10
1340.0
 20
-470.5
 30
0.0
 11
1390.0
 21
-470.5
 31
0.0
  0
TEXT
  5
C5
330
17
100
AcDbEntity
  8
TEXTLAYER
 62
1
100
AcDbText
 10
1365.0
 20
-445.5
 30
0.0
 40
10.0
  1
2-7
 72
1
 11
1365.0
 21
-445.5
 31
0.0
100
AcDbText
  0
LINE
  5
C6
330
17
100
AcDbEntity
  8
0
 62
9
100
AcDbLine
 10
1470.0
 20
-297.0
 30
0.0
 11
1680.0
 21
-297.0
 31
0.0
  0
LINE
  5
C7
330
17
100
AcDbEntity
  8
0
 62
9
100
AcDbLine
 10
1470.0
 20
-594.0
 30
0.0
 11
1680.0
 21
-594.0
 31
0.0
  0
LINE
  5
C8
330
17
100
AcDbEntity
  8
0
 62
9
100
AcDbLine
 10
1470.0
 20
-297.0
 30
0.0
 11
1470.0
 21
-594.0
 31
0.0
  0
LINE
  5
C9
330
17
100
AcDbEntity
  8
0
 62
9
100
AcDbLine
 10
1680.0
 20
-297.0
 30
0.0
 11
1680.0
 21
-594.0
 31
0.0
  0
LINE
  5
CA
330
17
100
AcDbEntity
  8
0
 62
9
100
AcDbLine
 10
1550.0
 20
-420.5
 30
0.0
 11
1600.0
 21
-420.5
 31
0.0
  0
LINE
  5
CB
330
17
100
AcDbEntity
  8
0
 62
9
100
AcDbLine
 10
1600.0
 20
-470.5
 30
0.0
 11
1600.0
 21
-420.5
 31
0.0
  0
LINE
  5
CC
330
17
100
AcDbEntity
  8
0
 62
9
100
AcDbLine
 10
1550.0
 20
-420.5
 30
0.0
 11
1550.0
 21
-470.5
 31
0.0
  0
LINE
  5
CD
330
17
100
AcDbEntity
  8
0
 62
9
100
AcDbLine
 10
1550.0
 20
-470.5
 30
0.0
 11
1600.0
 21
-470.5
 31
0.0
  0
TEXT
  5
CE
330
17
100
AcDbEntity
  8
TEXTLAYER
 62
1
100
AcDbText
 10
1575.0
 20
-445.5
 30
0.0
 40
10.0
  1
2-8
 72
1
 11
1575.0
 21
-445.5
 31
0.0
100
AcDbText
  0
LINE
  5
CF
330
17
100
AcDbEntity
  8
0
 62
9
100
AcDbLine
 10
1680.0
 20
-297.0
 30
0.0
 11
1890.0
 21
-297.0
 31
0.0
  0
LINE
  5
D0
330
17
100
AcDbEntity
  8
0
 62
9
100
AcDbLine
 10
1680.0
 20
-594.0
 30
0.0
 11
1890.0
 21
-594.0
 31
0.0
  0
LINE
  5
D1
330
17
100
AcDbEntity
  8
0
 62
9
100
AcDbLine
 10
1680.0
 20
-297.0
 30
0.0
 11
1680.0
 21
-594.0
 31
0.0
  0
LINE
  5
D2
330
17
100
AcDbEntity
  8
0
 62
9
100
AcDbLine
 10
1890.0
 20
-297.0
 30
0.0
 11
1890.0
 21
-594.0
 31
0.0
  0
LINE
  5
D3
330
17
100
AcDbEntity
  8
0
 62
9
100
AcDbLine
 10
1760.0
 20
-420.5
 30
0.0
 11
1810.0
 21
-420.5
 31
0.0
  0
LINE
  5
D4
330
17
100
AcDbEntity
  8
0
 62
9
100
AcDbLine
 10
1810.0
 20
-470.5
 30
0.0
 11
1810.0
 21
-420.5
 31
0.0
  0
LINE
  5
D5
330
17
100
AcDbEntity
  8
0
 62
9
100
AcDbLine
 10
1760.0
 20
-420.5
 30
0.0
 11
1760.0
 21
-470.5
 31
0.0
  0
LINE
  5
D6
330
17
100
AcDbEntity
  8
0
 62
9
100
AcDbLine
 10
1760.0
 20
-470.5
 30
0.0
 11
1810.0
 21
-470.5
 31
0.0
  0
TEXT
  5
D7
330
17
100
AcDbEntity
  8
TEXTLAYER
 62
1
100
AcDbText
 10
1785.0
 20
-445.5
 30
0.0
 40
10.0
  1
2-9
 72
1
 11
1785.0
 21
-445.5
 31
0.0
100
AcDbText
  0
LINE
  5
D8
330
17
100
AcDbEntity
  8
0
 62
9
100
AcDbLine
 10
1890.0
 20
-297.0
 30
0.0
 11
2100.0
 21
-297.0
 31
0.0
  0
LINE
  5
D9
330
17
100
AcDbEntity
  8
0
 62
9
100
AcDbLine
 10
1890.0
 20
-594.0
 30
0.0
 11
2100.0
 21
-594.0
 31
0.0
  0
LINE
  5
DA
330
17
100
AcDbEntity
  8
0
 62
9
100
AcDbLine
 10
1890.0
 20
-297.0
 30
0.0
 11
1890.0
 21
-594.0
 31
0.0
  0
LINE
  5
DB
330
17
100
AcDbEntity
  8
0
 62
9
100
AcDbLine
 10
2100.0
 20
-297.0
 30
0.0
 11
2100.0
 21
-594.0
 31
0.0
  0
LINE
  5
DC
330
17
100
AcDbEntity
  8
0
 62
9
100
AcDbLine
 10
1970.0
 20
-420.5
 30
0.0
 11
2020.0
 21
-420.5
 31
0.0
  0
LINE
  5
DD
330
17
100
AcDbEntity
  8
0
 62
9
100
AcDbLine
 10
2020.0
 20
-470.5
 30
0.0
 11
2020.0
 21
-420.5
 31
0.0
  0
LINE
  5
DE
330
17
100
AcDbEntity
  8
0
 62
9
100
AcDbLine
 10
1970.0
 20
-420.5
 30
0.0
 11
1970.0
 21
-470.5
 31
0.0
  0
LINE
  5
DF
330
17
100
AcDbEntity
  8
0
 62
9
100
AcDbLine
 10
1970.0
 20
-470.5
 30
0.0
 11
2020.0
 21
-470.5
 31
0.0
  0
TEXT
  5
E0
330
17
100
AcDbEntity
  8
TEXTLAYER
 62
1
100
AcDbText
 10
1995.0
 20
-445.5
 30
0.0
 40
10.0
  1
2-10
 72
1
 11
1995.0
 21
-445.5
 31
0.0
100
AcDbText
  0
LINE
  5
E1
330
17
100
AcDbEntity
  8
0
 62
9
100
AcDbLine
 10
0.0
 20
-594.0
 30
0.0
 11
210.0
 21
-594.0
 31
0.0
  0
LINE
  5
E2
330
17
100
AcDbEntity
  8
0
 62
9
100
AcDbLine
 10
0.0
 20
-891.0
 30
0.0
 11
210.0
 21
-891.0
 31
0.0
  0
LINE
  5
E3
330
17
100
AcDbEntity
  8
0
 62
9
100
AcDbLine
 10
0.0
 20
-594.0
 30
0.0
 11
0.0
 21
-891.0
 31
0.0
  0
LINE
  5
E4
330
17
100
AcDbEntity
  8
0
 62
9
100
AcDbLine
 10
210.0
 20
-594.0
 30
0.0
 11
210.0
 21
-891.0
 31
0.0
  0
LINE
  5
E5
330
17
100
AcDbEntity
  8
0
 62
9
100
AcDbLine
 10
80.0
 20
-717.5
 30
0.0
 11
130.0
 21
-717.5
 31
0.0
  0
LINE
  5
E6
330
17
100
AcDbEntity
  8
0
 62
9
100
AcDbLine
 10
130.0
 20
-767.5
 30
0.0
 11
130.0
 21
-717.5
 31
0.0
  0
LINE
  5
E7
330
17
100
AcDbEntity
  8
0
 62
9
100
AcDbLine
 10
80.0
 20
-717.5
 30
0.0
 11
80.0
 21
-767.5
 31
0.0
  0
LINE
  5
E8
330
17
100
AcDbEntity
  8
0
 62
9
100
AcDbLine
 10
80.0
 20
-767.5
 30
0.0
 11
130.0
 21
-767.5
 31
0.0
  0
TEXT
  5
E9
330
17
100
AcDbEntity
  8
TEXTLAYER
 62
1
100
AcDbText
 10
105.0
 20
-742.5
 30
0.0
 40
10.0
  1
3-1
 72
1
 11
105.0
 21
-742.5
 31
0.0
100
AcDbText
  0
LINE
  5
EA
330
17
100
AcDbEntity
  8
0
 62
9
100
AcDbLine
 10
210.0
 20
-594.0
 30
0.0
 11
420.0
 21
-594.0
 31
0.0
  0
LINE
  5
EB
330
17
100
AcDbEntity
  8
0
 62
9
100
AcDbLine
 10
210.0
 20
-891.0
 30
0.0
 11
420.0
 21
-891.0
 31
0.0
  0
LINE
  5
EC
330
17
100
AcDbEntity
  8
0
 62
9
100
AcDbLine
 10
210.0
 20
-594.0
 30
0.0
 11
210.0
 21
-891.0
 31
0.0
  0
LINE
  5
ED
330
17
100
AcDbEntity
  8
0
 62
9
100
AcDbLine
 10
420.0
 20
-594.0
 30
0.0
 11
420.0
 21
-891.0
 31
0.0
  0
LINE
  5
EE
330
17
100
AcDbEntity
  8
0
 62
9
100
AcDbLine
 10
290.0
 20
-717.5
 30
0.0
 11
340.0
 21
-717.5
 31
0.0
  0
LINE
  5
EF
330
17
100
AcDbEntity
  8
0
 62
9
100
AcDbLine
 10
340.0
 20
-767.5
 30
0.0
 11
340.0
 21
-717.5
 31
0.0
  0
LINE
  5
F0
330
17
100
AcDbEntity
  8
0
 62
9
100
AcDbLine
 10
290.0
 20
-717.5
 30
0.0
 11
290.0
 21
-767.5
 31
0.0
  0
LINE
  5
F1
330
17
100
AcDbEntity
  8
0
 62
9
100
AcDbLine
 10
290.0
 20
-767.5
 30
0.0
 11
340.0
 21
-767.5
 31
0.0
  0
TEXT
  5
F2
330
17
100
AcDbEntity
  8
TEXTLAYER
 62
1
100
AcDbText
 10
315.0
 20
-742.5
 30
0.0
 40
10.0
  1
3-2
 72
1
 11
315.0
 21
-742.5
 31
0.0
100
AcDbText
  0
LINE
  5
F3
330
17
100
AcDbEntity
  8
0
 62
9
100
AcDbLine
 10
420.0
 20
-594.0
 30
0.0
 11
630.0
 21
-594.0
 31
0.0
  0
LINE
  5
F4
330
17
100
AcDbEntity
  8
0
 62
9
100
AcDbLine
 10
420.0
 20
-891.0
 30
0.0
 11
630.0
 21
-891.0
 31
0.0
  0
LINE
  5
F5
330
17
100
AcDbEntity
  8
0
 62
9
100
AcDbLine
 10
420.0
 20
-594.0
 30
0.0
 11
420.0
 21
-891.0
 31
0.0
  0
LINE
  5
F6
330
17
100
AcDbEntity
  8
0
 62
9
100
AcDbLine
 10
630.0
 20
-594.0
 30
0.0
 11
630.0
 21
-891.0
 31
0.0
  0
LINE
  5
F7
330
17
100
AcDbEntity
  8
0
 62
9
100
AcDbLine
 10
500.0
 20
-717.5
 30
0.0
 11
550.0
 21
-717.5
 31
0.0
  0
LINE
  5
F8
330
17
100
AcDbEntity
  8
0
 62
9
100
AcDbLine
 10
550.0
 20
-767.5
 30
0.0
 11
550.0
 21
-717.5
 31
0.0
  0
LINE
  5
F9
330
17
100
AcDbEntity
  8
0
 62
9
100
AcDbLine
 10
500.0
 20
-717.5
 30
0.0
 11
500.0
 21
-767.5
 31
0.0
  0
LINE
  5
FA
330
17
100
AcDbEntity
  8
0
 62
9
100
AcDbLine
 10
500.0
 20
-767.5
 30
0.0
 11
550.0
 21
-767.5
 31
0.0
  0
TEXT
  5
FB
330
17
100
AcDbEntity
  8
TEXTLAYER
 62
1
100
AcDbText
 10
525.0
 20
-742.5
 30
0.0
 40
10.0
  1
3-3
 72
1
 11
525.0
 21
-742.5
 31
0.0
100
AcDbText
  0
LINE
  5
FC
330
17
100
AcDbEntity
  8
0
 62
9
100
AcDbLine
 10
630.0
 20
-594.0
 30
0.0
 11
840.0
 21
-594.0
 31
0.0
  0
LINE
  5
FD
330
17
100
AcDbEntity
  8
0
 62
9
100
AcDbLine
 10
630.0
 20
-891.0
 30
0.0
 11
840.0
 21
-891.0
 31
0.0
  0
LINE
  5
FE
330
17
100
AcDbEntity
  8
0
 62
9
100
AcDbLine
 10
630.0
 20
-594.0
 30
0.0
 11
630.0
 21
-891.0
 31
0.0
  0
LINE
  5
FF
330
17
100
AcDbEntity
  8
0
 62
9
100
AcDbLine
 10
840.0
 20
-594.0
 30
0.0
 11
840.0
 21
-891.0
 31
0.0
  0
LINE
  5
100
330
17
100
AcDbEntity
  8
0
 62
9
100
AcDbLine
 10
710.0
 20
-717.5
 30
0.0
 11
760.0
 21
-717.5
 31
0.0
  0
LINE
  5
101
330
17
100
AcDbEntity
  8
0
 62
9
100
AcDbLine
 10
760.0
 20
-767.5
 30
0.0
 11
760.0
 21
-717.5
 31
0.0
  0
LINE
  5
102
330
17
100
AcDbEntity
  8
0
 62
9
100
AcDbLine
 10
710.0
 20
-717.5
 30
0.0
 11
710.0
 21
-767.5
 31
0.0
  0
LINE
  5
103
330
17
100
AcDbEntity
  8
0
 62
9
100
AcDbLine
 10
710.0
 20
-767.5
 30
0.0
 11
760.0
 21
-767.5
 31
0.0
  0
TEXT
  5
104
330
17
100
AcDbEntity
  8
TEXTLAYER
 62
1
100
AcDbText
 10
735.0
 20
-742.5
 30
0.0
 40
10.0
  1
3-4
 72
1
 11
735.0
 21
-742.5
 31
0.0
100
AcDbText
  0
LINE
  5
105
330
17
100
AcDbEntity
  8
0
 62
9
100
AcDbLine
 10
840.0
 20
-594.0
 30
0.0
 11
1050.0
 21
-594.0
 31
0.0
  0
LINE
  5
106
330
17
100
AcDbEntity
  8
0
 62
9
100
AcDbLine
 10
840.0
 20
-891.0
 30
0.0
 11
1050.0
 21
-891.0
 31
0.0
  0
LINE
  5
107
330
17
100
AcDbEntity
  8
0
 62
9
100
AcDbLine
 10
840.0
 20
-594.0
 30
0.0
 11
840.0
 21
-891.0
 31
0.0
  0
LINE
  5
108
330
17
100
AcDbEntity
  8
0
 62
9
100
AcDbLine
 10
1050.0
 20
-594.0
 30
0.0
 11
1050.0
 21
-891.0
 31
0.0
  0
LINE
  5
109
330
17
100
AcDbEntity
  8
0
 62
9
100
AcDbLine
 10
920.0
 20
-717.5
 30
0.0
 11
970.0
 21
-717.5
 31
0.0
  0
LINE
  5
10A
330
17
100
AcDbEntity
  8
0
 62
9
100
AcDbLine
 10
970.0
 20
-767.5
 30
0.0
 11
970.0
 21
-717.5
 31
0.0
  0
LINE
  5
10B
330
17
100
AcDbEntity
  8
0
 62
9
100
AcDbLine
 10
920.0
 20
-717.5
 30
0.0
 11
920.0
 21
-767.5
 31
0.0
  0
LINE
  5
10C
330
17
100
AcDbEntity
  8
0
 62
9
100
AcDbLine
 10
920.0
 20
-767.5
 30
0.0
 11
970.0
 21
-767.5
 31
0.0
  0
TEXT
  5
10D
330
17
100
AcDbEntity
  8
TEXTLAYER
 62
1
100
AcDbText
 10
945.0
 20
-742.5
 30
0.0
 40
10.0
  1
3-5
 72
1
 11
945.0
 21
-742.5
 31
0.0
100
AcDbText
  0
LINE
  5
10E
330
17
100
AcDbEntity
  8
0
 62
9
100
AcDbLine
 10
1050.0
 20
-594.0
 30
0.0
 11
1260.0
 21
-594.0
 31
0.0
  0
LINE
  5
10F
330
17
100
AcDbEntity
  8
0
 62
9
100
AcDbLine
 10
1050.0
 20
-891.0
 30
0.0
 11
1260.0
 21
-891.0
 31
0.0
  0
LINE
  5
110
330
17
100
AcDbEntity
  8
0
 62
9
100
AcDbLine
 10
1050.0
 20
-594.0
 30
0.0
 11
1050.0
 21
-891.0
 31
0.0
  0
LINE
  5
111
330
17
100
AcDbEntity
  8
0
 62
9
100
AcDbLine
 10
1260.0
 20
-594.0
 30
0.0
 11
1260.0
 21
-891.0
 31
0.0
  0
LINE
  5
112
330
17
100
AcDbEntity
  8
0
 62
9
100
AcDbLine
 10
1130.0
 20
-717.5
 30
0.0
 11
1180.0
 21
-717.5
 31
0.0
  0
LINE
  5
113
330
17
100
AcDbEntity
  8
0
 62
9
100
AcDbLine
 10
1180.0
 20
-767.5
 30
0.0
 11
1180.0
 21
-717.5
 31
0.0
  0
LINE
  5
114
330
17
100
AcDbEntity
  8
0
 62
9
100
AcDbLine
 10
1130.0
 20
-717.5
 30
0.0
 11
1130.0
 21
-767.5
 31
0.0
  0
LINE
  5
115
330
17
100
AcDbEntity
  8
0
 62
9
100
AcDbLine
 10
1130.0
 20
-767.5
 30
0.0
 11
1180.0
 21
-767.5
 31
0.0
  0
TEXT
  5
116
330
17
100
AcDbEntity
  8
TEXTLAYER
 62
1
100
AcDbText
 10
1155.0
 20
-742.5
 30
0.0
 40
10.0
  1
3-6
 72
1
 11
1155.0
 21
-742.5
 31
0.0
100
AcDbText
  0
LINE
  5
117
330
17
100
AcDbEntity
  8
0
 62
9
100
AcDbLine
 10
1260.0
 20
-594.0
 30
0.0
 11
1470.0
 21
-594.0
 31
0.0
  0
LINE
  5
118
330
17
100
AcDbEntity
  8
0
 62
9
100
AcDbLine
 10
1260.0
 20
-891.0
 30
0.0
 11
1470.0
 21
-891.0
 31
0.0
  0
LINE
  5
119
330
17
100
AcDbEntity
  8
0
 62
9
100
AcDbLine
 10
1260.0
 20
-594.0
 30
0.0
 11
1260.0
 21
-891.0
 31
0.0
  0
LINE
  5
11A
330
17
100
AcDbEntity
  8
0
 62
9
100
AcDbLine
 10
1470.0
 20
-594.0
 30
0.0
 11
1470.0
 21
-891.0
 31
0.0
  0
LINE
  5
11B
330
17
100
AcDbEntity
  8
0
 62
9
100
AcDbLine
 10
1340.0
 20
-717.5
 30
0.0
 11
1390.0
 21
-717.5
 31
0.0
  0
LINE
  5
11C
330
17
100
AcDbEntity
  8
0
 62
9
100
AcDbLine
 10
1390.0
 20
-767.5
 30
0.0
 11
1390.0
 21
-717.5
 31
0.0
  0
LINE
  5
11D
330
17
100
AcDbEntity
  8
0
 62
9
100
AcDbLine
 10
1340.0
 20
-717.5
 30
0.0
 11
1340.0
 21
-767.5
 31
0.0
  0
LINE
  5
11E
330
17
100
AcDbEntity
  8
0
 62
9
100
AcDbLine
 10
1340.0
 20
-767.5
 30
0.0
 11
1390.0
 21
-767.5
 31
0.0
  0
TEXT
  5
11F
330
17
100
AcDbEntity
  8
TEXTLAYER
 62
1
100
AcDbText
 10
1365.0
 20
-742.5
 30
0.0
 40
10.0
  1
3-7
 72
1
 11
1365.0
 21
-742.5
 31
0.0
100
AcDbText
  0
LINE
  5
120
330
17
100
AcDbEntity
  8
0
 62
9
100
AcDbLine
 10
1470.0
 20
-594.0
 30
0.0
 11
1680.0
 21
-594.0
 31
0.0
  0
LINE
  5
121
330
17
100
AcDbEntity
  8
0
 62
9
100
AcDbLine
 10
1470.0
 20
-891.0
 30
0.0
 11
1680.0
 21
-891.0
 31
0.0
  0
LINE
  5
122
330
17
100
AcDbEntity
  8
0
 62
9
100
AcDbLine
 10
1470.0
 20
-594.0
 30
0.0
 11
1470.0
 21
-891.0
 31
0.0
  0
LINE
  5
123
330
17
100
AcDbEntity
  8
0
 62
9
100
AcDbLine
 10
1680.0
 20
-594.0
 30
0.0
 11
1680.0
 21
-891.0
 31
0.0
  0
LINE
  5
124
330
17
100
AcDbEntity
  8
0
 62
9
100
AcDbLine
 10
1550.0
 20
-717.5
 30
0.0
 11
1600.0
 21
-717.5
 31
0.0
  0
LINE
  5
125
330
17
100
AcDbEntity
  8
0
 62
9
100
AcDbLine
 10
1600.0
 20
-767.5
 30
0.0
 11
1600.0
 21
-717.5
 31
0.0
  0
LINE
  5
126
330
17
100
AcDbEntity
  8
0
 62
9
100
AcDbLine
 10
1550.0
 20
-717.5
 30
0.0
 11
1550.0
 21
-767.5
 31
0.0
  0
LINE
  5
127
330
17
100
AcDbEntity
  8
0
 62
9
100
AcDbLine
 10
1550.0
 20
-767.5
 30
0.0
 11
1600.0
 21
-767.5
 31
0.0
  0
TEXT
  5
128
330
17
100
AcDbEntity
  8
TEXTLAYER
 62
1
100
AcDbText
 10
1575.0
 20
-742.5
 30
0.0
 40
10.0
  1
3-8
 72
1
 11
1575.0
 21
-742.5
 31
0.0
100
AcDbText
  0
LINE
  5
129
330
17
100
AcDbEntity
  8
0
 62
9
100
AcDbLine
 10
1680.0
 20
-594.0
 30
0.0
 11
1890.0
 21
-594.0
 31
0.0
  0
LINE
  5
12A
330
17
100
AcDbEntity
  8
0
 62
9
100
AcDbLine
 10
1680.0
 20
-891.0
 30
0.0
 11
1890.0
 21
-891.0
 31
0.0
  0
LINE
  5
12B
330
17
100
AcDbEntity
  8
0
 62
9
100
AcDbLine
 10
1680.0
 20
-594.0
 30
0.0
 11
1680.0
 21
-891.0
 31
0.0
  0
LINE
  5
12C
330
17
100
AcDbEntity
  8
0
 62
9
100
AcDbLine
 10
1890.0
 20
-594.0
 30
0.0
 11
1890.0
 21
-891.0
 31
0.0
  0
LINE
  5
12D
330
17
100
AcDbEntity
  8
0
 62
9
100
AcDbLine
 10
1760.0
 20
-717.5
 30
0.0
 11
1810.0
 21
-717.5
 31
0.0
  0
LINE
  5
12E
330
17
100
AcDbEntity
  8
0
 62
9
100
AcDbLine
 10
1810.0
 20
-767.5
 30
0.0
 11
1810.0
 21
-717.5
 31
0.0
  0
LINE
  5
12F
330
17
100
AcDbEntity
  8
0
 62
9
100
AcDbLine
 10
1760.0
 20
-717.5
 30
0.0
 11
1760.0
 21
-767.5
 31
0.0
  0
LINE
  5
130
330
17
100
AcDbEntity
  8
0
 62
9
100
AcDbLine
 10
1760.0
 20
-767.5
 30
0.0
 11
1810.0
 21
-767.5
 31
0.0
  0
TEXT
  5
131
330
17
100
AcDbEntity
  8
TEXTLAYER
 62
1
100
AcDbText
 10
1785.0
 20
-742.5
 30
0.0
 40
10.0
  1
3-9
 72
1
 11
1785.0
 21
-742.5
 31
0.0
100
AcDbText
  0
LINE
  5
132
330
17
100
AcDbEntity
  8
0
 62
9
100
AcDbLine
 10
1890.0
 20
-594.0
 30
0.0
 11
2100.0
 21
-594.0
 31
0.0
  0
LINE
  5
133
330
17
100
AcDbEntity
  8
0
 62
9
100
AcDbLine
 10
1890.0
 20
-891.0
 30
0.0
 11
2100.0
 21
-891.0
 31
0.0
  0
LINE
  5
134
330
17
100
AcDbEntity
  8
0
 62
9
100
AcDbLine
 10
1890.0
 20
-594.0
 30
0.0
 11
1890.0
 21
-891.0
 31
0.0
  0
LINE
  5
135
330
17
100
AcDbEntity
  8
0
 62
9
100
AcDbLine
 10
2100.0
 20
-594.0
 30
0.0
 11
2100.0
 21
-891.0
 31
0.0
  0
LINE
  5
136
330
17
100
AcDbEntity
  8
0
 62
9
100
AcDbLine
 10
1970.0
 20
-717.5
 30
0.0
 11
2020.0
 21
-717.5
 31
0.0
  0
LINE
  5
137
330
17
100
AcDbEntity
  8
0
 62
9
100
AcDbLine
 10
2020.0
 20
-767.5
 30
0.0
 11
2020.0
 21
-717.5
 31
0.0
  0
LINE
  5
138
330
17
100
AcDbEntity
  8
0
 62
9
100
AcDbLine
 10
1970.0
 20
-717.5
 30
0.0
 11
1970.0
 21
-767.5
 31
0.0
  0
LINE
  5
139
330
17
100
AcDbEntity
  8
0
 62
9
100
AcDbLine
 10
1970.0
 20
-767.5
 30
0.0
 11
2020.0
 21
-767.5
 31
0.0
  0
TEXT
  5
13A
330
17
100
AcDbEntity
  8
TEXTLAYER
 62
1
100
AcDbText
 10
1995.0
 20
-742.5
 30
0.0
 40
10.0
  1
3-10
 72
1
 11
1995.0
 21
-742.5
 31
0.0
100
AcDbText
  0
LINE
  5
13B
330
17
100
AcDbEntity
  8
0
 62
9
100
AcDbLine
 10
0.0
 20
-891.0
 30
0.0
 11
210.0
 21
-891.0
 31
0.0
  0
LINE
  5
13C
330
17
100
AcDbEntity
  8
0
 62
9
100
AcDbLine
 10
0.0
 20
-1188.0
 30
0.0
 11
210.0
 21
-1188.0
 31
0.0
  0
LINE
  5
13D
330
17
100
AcDbEntity
  8
0
 62
9
100
AcDbLine
 10
0.0
 20
-891.0
 30
0.0
 11
0.0
 21
-1188.0
 31
0.0
  0
LINE
  5
13E
330
17
100
AcDbEntity
  8
0
 62
9
100
AcDbLine
 10
210.0
 20
-891.0
 30
0.0
 11
210.0
 21
-1188.0
 31
0.0
  0
LINE
  5
13F
330
17
100
AcDbEntity
  8
0
 62
9
100
AcDbLine
 10
80.0
 20
-1014.5
 30
0.0
 11
130.0
 21
-1014.5
 31
0.0
  0
LINE
  5
140
330
17
100
AcDbEntity
  8
0
 62
9
100
AcDbLine
 10
130.0
 20
-1064.5
 30
0.0
 11
130.0
 21
-1014.5
 31
0.0
  0
LINE
  5
141
330
17
100
AcDbEntity
  8
0
 62
9
100
AcDbLine
 10
80.0
 20
-1014.5
 30
0.0
 11
80.0
 21
-1064.5
 31
0.0
  0
LINE
  5
142
330
17
100
AcDbEntity
  8
0
 62
9
100
AcDbLine
 10
80.0
 20
-1064.5
 30
0.0
 11
130.0
 21
-1064.5
 31
0.0
  0
TEXT
  5
143
330
17
100
AcDbEntity
  8
TEXTLAYER
 62
1
100
AcDbText
 10
105.0
 20
-1039.5
 30
0.0
 40
10.0
  1
4-1
 72
1
 11
105.0
 21
-1039.5
 31
0.0
100
AcDbText
  0
LINE
  5
144
330
17
100
AcDbEntity
  8
0
 62
9
100
AcDbLine
 10
210.0
 20
-891.0
 30
0.0
 11
420.0
 21
-891.0
 31
0.0
  0
LINE
  5
145
330
17
100
AcDbEntity
  8
0
 62
9
100
AcDbLine
 10
210.0
 20
-1188.0
 30
0.0
 11
420.0
 21
-1188.0
 31
0.0
  0
LINE
  5
146
330
17
100
AcDbEntity
  8
0
 62
9
100
AcDbLine
 10
210.0
 20
-891.0
 30
0.0
 11
210.0
 21
-1188.0
 31
0.0
  0
LINE
  5
147
330
17
100
AcDbEntity
  8
0
 62
9
100
AcDbLine
 10
420.0
 20
-891.0
 30
0.0
 11
420.0
 21
-1188.0
 31
0.0
  0
LINE
  5
148
330
17
100
AcDbEntity
  8
0
 62
9
100
AcDbLine
 10
290.0
 20
-1014.5
 30
0.0
 11
340.0
 21
-1014.5
 31
0.0
  0
LINE
  5
149
330
17
100
AcDbEntity
  8
0
 62
9
100
AcDbLine
 10
340.0
 20
-1064.5
 30
0.0
 11
340.0
 21
-1014.5
 31
0.0
  0
LINE
  5
14A
330
17
100
AcDbEntity
  8
0
 62
9
100
AcDbLine
 10
290.0
 20
-1014.5
 30
0.0
 11
290.0
 21
-1064.5
 31
0.0
  0
LINE
  5
14B
330
17
100
AcDbEntity
  8
0
 62
9
100
AcDbLine
 10
290.0
 20
-1064.5
 30
0.0
 11
340.0
 21
-1064.5
 31
0.0
  0
TEXT
  5
14C
330
17
100
AcDbEntity
  8
TEXTLAYER
 62
1
100
AcDbText
 10
315.0
 20
-1039.5
 30
0.0
 40
10.0
  1
4-2
 72
1
 11
315.0
 21
-1039.5
 31
0.0
100
AcDbText
  0
LINE
  5
14D
330
17
100
AcDbEntity
  8
0
 62
9
100
AcDbLine
 10
420.0
 20
-891.0
 30
0.0
 11
630.0
 21
-891.0
 31
0.0
  0
LINE
  5
14E
330
17
100
AcDbEntity
  8
0
 62
9
100
AcDbLine
 10
420.0
 20
-1188.0
 30
0.0
 11
630.0
 21
-1188.0
 31
0.0
  0
LINE
  5
14F
330
17
100
AcDbEntity
  8
0
 62
9
100
AcDbLine
 10
420.0
 20
-891.0
 30
0.0
 11
420.0
 21
-1188.0
 31
0.0
  0
LINE
  5
150
330
17
100
AcDbEntity
  8
0
 62
9
100
AcDbLine
 10
630.0
 20
-891.0
 30
0.0
 11
630.0
 21
-1188.0
 31
0.0
  0
LINE
  5
151
330
17
100
AcDbEntity
  8
0
 62
9
100
AcDbLine
 10
500.0
 20
-1014.5
 30
0.0
 11
550.0
 21
-1014.5
 31
0.0
  0
LINE
  5
152
330
17
100
AcDbEntity
  8
0
 62
9
100
AcDbLine
 10
550.0
 20
-1064.5
 30
0.0
 11
550.0
 21
-1014.5
 31
0.0
  0
LINE
  5
153
330
17
100
AcDbEntity
  8
0
 62
9
100
AcDbLine
 10
500.0
 20
-1014.5
 30
0.0
 11
500.0
 21
-1064.5
 31
0.0
  0
LINE
  5
154
330
17
100
AcDbEntity
  8
0
 62
9
100
AcDbLine
 10
500.0
 20
-1064.5
 30
0.0
 11
550.0
 21
-1064.5
 31
0.0
  0
TEXT
  5
155
330
17
100
AcDbEntity
  8
TEXTLAYER
 62
1
100
AcDbText
 10
525.0
 20
-1039.5
 30
0.0
 40
10.0
  1
4-3
 72
1
 11
525.0
 21
-1039.5
 31
0.0
100
AcDbText
  0
LINE
  5
156
330
17
100
AcDbEntity
  8
0
 62
9
100
AcDbLine
 10
630.0
 20
-891.0
 30
0.0
 11
840.0
 21
-891.0
 31
0.0
  0
LINE
  5
157
330
17
100
AcDbEntity
  8
0
 62
9
100
AcDbLine
 10
630.0
 20
-1188.0
 30
0.0
 11
840.0
 21
-1188.0
 31
0.0
  0
LINE
  5
158
330
17
100
AcDbEntity
  8
0
 62
9
100
AcDbLine
 10
630.0
 20
-891.0
 30
0.0
 11
630.0
 21
-1188.0
 31
0.0
  0
LINE
  5
159
330
17
100
AcDbEntity
  8
0
 62
9
100
AcDbLine
 10
840.0
 20
-891.0
 30
0.0
 11
840.0
 21
-1188.0
 31
0.0
  0
LINE
  5
15A
330
17
100
AcDbEntity
  8
0
 62
9
100
AcDbLine
 10
710.0
 20
-1014.5
 30
0.0
 11
760.0
 21
-1014.5
 31
0.0
  0
LINE
  5
15B
330
17
100
AcDbEntity
  8
0
 62
9
100
AcDbLine
 10
760.0
 20
-1064.5
 30
0.0
 11
760.0
 21
-1014.5
 31
0.0
  0
LINE
  5
15C
330
17
100
AcDbEntity
  8
0
 62
9
100
AcDbLine
 10
710.0
 20
-1014.5
 30
0.0
 11
710.0
 21
-1064.5
 31
0.0
  0
LINE
  5
15D
330
17
100
AcDbEntity
  8
0
 62
9
100
AcDbLine
 10
710.0
 20
-1064.5
 30
0.0
 11
760.0
 21
-1064.5
 31
0.0
  0
TEXT
  5
15E
330
17
100
AcDbEntity
  8
TEXTLAYER
 62
1
100
AcDbText
 10
735.0
 20
-1039.5
 30
0.0
 40
10.0
  1
4-4
 72
1
 11
735.0
 21
-1039.5
 31
0.0
100
AcDbText
  0
LINE
  5
15F
330
17
100
AcDbEntity
  8
0
 62
9
100
AcDbLine
 10
840.0
 20
-891.0
 30
0.0
 11
1050.0
 21
-891.0
 31
0.0
  0
LINE
  5
160
330
17
100
AcDbEntity
  8
0
 62
9
100
AcDbLine
 10
840.0
 20
-1188.0
 30
0.0
 11
1050.0
 21
-1188.0
 31
0.0
  0
LINE
  5
161
330
17
100
AcDbEntity
  8
0
 62
9
100
AcDbLine
 10
840.0
 20
-891.0
 30
0.0
 11
840.0
 21
-1188.0
 31
0.0
  0
LINE
  5
162
330
17
100
AcDbEntity
  8
0
 62
9
100
AcDbLine
 10
1050.0
 20
-891.0
 30
0.0
 11
1050.0
 21
-1188.0
 31
0.0
  0
LINE
  5
163
330
17
100
AcDbEntity
  8
0
 62
9
100
AcDbLine
 10
920.0
 20
-1014.5
 30
0.0
 11
970.0
 21
-1014.5
 31
0.0
  0
LINE
  5
164
330
17
100
AcDbEntity
  8
0
 62
9
100
AcDbLine
 10
970.0
 20
-1064.5
 30
0.0
 11
970.0
 21
-1014.5
 31
0.0
  0
LINE
  5
165
330
17
100
AcDbEntity
  8
0
 62
9
100
AcDbLine
 10
920.0
 20
-1014.5
 30
0.0
 11
920.0
 21
-1064.5
 31
0.0
  0
LINE
  5
166
330
17
100
AcDbEntity
  8
0
 62
9
100
AcDbLine
 10
920.0
 20
-1064.5
 30
0.0
 11
970.0
 21
-1064.5
 31
0.0
  0
TEXT
  5
167
330
17
100
AcDbEntity
  8
TEXTLAYER
 62
1
100
AcDbText
 10
945.0
 20
-1039.5
 30
0.0
 40
10.0
  1
4-5
 72
1
 11
945.0
 21
-1039.5
 31
0.0
100
AcDbText
  0
LINE
  5
168
330
17
100
AcDbEntity
  8
0
 62
9
100
AcDbLine
 10
1050.0
 20
-891.0
 30
0.0
 11
1260.0
 21
-891.0
 31
0.0
  0
LINE
  5
169
330
17
100
AcDbEntity
  8
0
 62
9
100
AcDbLine
 10
1050.0
 20
-1188.0
 30
0.0
 11
1260.0
 21
-1188.0
 31
0.0
  0
LINE
  5
16A
330
17
100
AcDbEntity
  8
0
 62
9
100
AcDbLine
 10
1050.0
 20
-891.0
 30
0.0
 11
1050.0
 21
-1188.0
 31
0.0
  0
LINE
  5
16B
330
17
100
AcDbEntity
  8
0
 62
9
100
AcDbLine
 10
1260.0
 20
-891.0
 30
0.0
 11
1260.0
 21
-1188.0
 31
0.0
  0
LINE
  5
16C
330
17
100
AcDbEntity
  8
0
 62
9
100
AcDbLine
 10
1130.0
 20
-1014.5
 30
0.0
 11
1180.0
 21
-1014.5
 31
0.0
  0
LINE
  5
16D
330
17
100
AcDbEntity
  8
0
 62
9
100
AcDbLine
 10
1180.0
 20
-1064.5
 30
0.0
 11
1180.0
 21
-1014.5
 31
0.0
  0
LINE
  5
16E
330
17
100
AcDbEntity
  8
0
 62
9
100
AcDbLine
 10
1130.0
 20
-1014.5
 30
0.0
 11
1130.0
 21
-1064.5
 31
0.0
  0
LINE
  5
16F
330
17
100
AcDbEntity
  8
0
 62
9
100
AcDbLine
 10
1130.0
 20
-1064.5
 30
0.0
 11
1180.0
 21
-1064.5
 31
0.0
  0
TEXT
  5
170
330
17
100
AcDbEntity
  8
TEXTLAYER
 62
1
100
AcDbText
 10
1155.0
 20
-1039.5
 30
0.0
 40
10.0
  1
4-6
 72
1
 11
1155.0
 21
-1039.5
 31
0.0
100
AcDbText
  0
LINE
  5
171
330
17
100
AcDbEntity
  8
0
 62
9
100
AcDbLine
 10
1260.0
 20
-891.0
 30
0.0
 11
1470.0
 21
-891.0
 31
0.0
  0
LINE
  5
172
330
17
100
AcDbEntity
  8
0
 62
9
100
AcDbLine
 10
1260.0
 20
-1188.0
 30
0.0
 11
1470.0
 21
-1188.0
 31
0.0
  0
LINE
  5
173
330
17
100
AcDbEntity
  8
0
 62
9
100
AcDbLine
 10
1260.0
 20
-891.0
 30
0.0
 11
1260.0
 21
-1188.0
 31
0.0
  0
LINE
  5
174
330
17
100
AcDbEntity
  8
0
 62
9
100
AcDbLine
 10
1470.0
 20
-891.0
 30
0.0
 11
1470.0
 21
-1188.0
 31
0.0
  0
LINE
  5
175
330
17
100
AcDbEntity
  8
0
 62
9
100
AcDbLine
 10
1340.0
 20
-1014.5
 30
0.0
 11
1390.0
 21
-1014.5
 31
0.0
  0
LINE
  5
176
330
17
100
AcDbEntity
  8
0
 62
9
100
AcDbLine
 10
1390.0
 20
-1064.5
 30
0.0
 11
1390.0
 21
-1014.5
 31
0.0
  0
LINE
  5
177
330
17
100
AcDbEntity
  8
0
 62
9
100
AcDbLine
 10
1340.0
 20
-1014.5
 30
0.0
 11
1340.0
 21
-1064.5
 31
0.0
  0
LINE
  5
178
330
17
100
AcDbEntity
  8
0
 62
9
100
AcDbLine
 10
1340.0
 20
-1064.5
 30
0.0
 11
1390.0
 21
-1064.5
 31
0.0
  0
TEXT
  5
179
330
17
100
AcDbEntity
  8
TEXTLAYER
 62
1
100
AcDbText
 10
1365.0
 20
-1039.5
 30
0.0
 40
10.0
  1
4-7
 72
1
 11
1365.0
 21
-1039.5
 31
0.0
100
AcDbText
  0
LINE
  5
17A
330
17
100
AcDbEntity
  8
0
 62
9
100
AcDbLine
 10
1470.0
 20
-891.0
 30
0.0
 11
1680.0
 21
-891.0
 31
0.0
  0
LINE
  5
17B
330
17
100
AcDbEntity
  8
0
 62
9
100
AcDbLine
 10
1470.0
 20
-1188.0
 30
0.0
 11
1680.0
 21
-1188.0
 31
0.0
  0
LINE
  5
17C
330
17
100
AcDbEntity
  8
0
 62
9
100
AcDbLine
 10
1470.0
 20
-891.0
 30
0.0
 11
1470.0
 21
-1188.0
 31
0.0
  0
LINE
  5
17D
330
17
100
AcDbEntity
  8
0
 62
9
100
AcDbLine
 10
1680.0
 20
-891.0
 30
0.0
 11
1680.0
 21
-1188.0
 31
0.0
  0
LINE
  5
17E
330
17
100
AcDbEntity
  8
0
 62
9
100
AcDbLine
 10
1550.0
 20
-1014.5
 30
0.0
 11
1600.0
 21
-1014.5
 31
0.0
  0
LINE
  5
17F
330
17
100
AcDbEntity
  8
0
 62
9
100
AcDbLine
 10
1600.0
 20
-1064.5
 30
0.0
 11
1600.0
 21
-1014.5
 31
0.0
  0
LINE
  5
180
330
17
100
AcDbEntity
  8
0
 62
9
100
AcDbLine
 10
1550.0
 20
-1014.5
 30
0.0
 11
1550.0
 21
-1064.5
 31
0.0
  0
LINE
  5
181
330
17
100
AcDbEntity
  8
0
 62
9
100
AcDbLine
 10
1550.0
 20
-1064.5
 30
0.0
 11
1600.0
 21
-1064.5
 31
0.0
  0
TEXT
  5
182
330
17
100
AcDbEntity
  8
TEXTLAYER
 62
1
100
AcDbText
 10
1575.0
 20
-1039.5
 30
0.0
 40
10.0
  1
4-8
 72
1
 11
1575.0
 21
-1039.5
 31
0.0
100
AcDbText
  0
LINE
  5
183
330
17
100
AcDbEntity
  8
0
 62
9
100
AcDbLine
 10
1680.0
 20
-891.0
 30
0.0
 11
1890.0
 21
-891.0
 31
0.0
  0
LINE
  5
184
330
17
100
AcDbEntity
  8
0
 62
9
100
AcDbLine
 10
1680.0
 20
-1188.0
 30
0.0
 11
1890.0
 21
-1188.0
 31
0.0
  0
LINE
  5
185
330
17
100
AcDbEntity
  8
0
 62
9
100
AcDbLine
 10
1680.0
 20
-891.0
 30
0.0
 11
1680.0
 21
-1188.0
 31
0.0
  0
LINE
  5
186
330
17
100
AcDbEntity
  8
0
 62
9
100
AcDbLine
 10
1890.0
 20
-891.0
 30
0.0
 11
1890.0
 21
-1188.0
 31
0.0
  0
LINE
  5
187
330
17
100
AcDbEntity
  8
0
 62
9
100
AcDbLine
 10
1760.0
 20
-1014.5
 30
0.0
 11
1810.0
 21
-1014.5
 31
0.0
  0
LINE
  5
188
330
17
100
AcDbEntity
  8
0
 62
9
100
AcDbLine
 10
1810.0
 20
-1064.5
 30
0.0
 11
1810.0
 21
-1014.5
 31
0.0
  0
LINE
  5
189
330
17
100
AcDbEntity
  8
0
 62
9
100
AcDbLine
 10
1760.0
 20
-1014.5
 30
0.0
 11
1760.0
 21
-1064.5
 31
0.0
  0
LINE
  5
18A
330
17
100
AcDbEntity
  8
0
 62
9
100
AcDbLine
 10
1760.0
 20
-1064.5
 30
0.0
 11
1810.0
 21
-1064.5
 31
0.0
  0
TEXT
  5
18B
330
17
100
AcDbEntity
  8
TEXTLAYER
 62
1
100
AcDbText
 10
1785.0
 20
-1039.5
 30
0.0
 40
10.0
  1
4-9
 72
1
 11
1785.0
 21
-1039.5
 31
0.0
100
AcDbText
  0
LINE
  5
18C
330
17
100
AcDbEntity
  8
0
 62
9
100
AcDbLine
 10
1890.0
 20
-891.0
 30
0.0
 11
2100.0
 21
-891.0
 31
0.0
  0
LINE
  5
18D
330
17
100
AcDbEntity
  8
0
 62
9
100
AcDbLine
 10
1890.0
 20
-1188.0
 30
0.0
 11
2100.0
 21
-1188.0
 31
0.0
  0
LINE
  5
18E
330
17
100
AcDbEntity
  8
0
 62
9
100
AcDbLine
 10
1890.0
 20
-891.0
 30
0.0
 11
1890.0
 21
-1188.0
 31
0.0
  0
LINE
  5
18F
330
17
100
AcDbEntity
  8
0
 62
9
100
AcDbLine
 10
2100.0
 20
-891.0
 30
0.0
 11
2100.0
 21
-1188.0
 31
0.0
  0
LINE
  5
190
330
17
100
AcDbEntity
  8
0
 62
9
100
AcDbLine
 10
1970.0
 20
-1014.5
 30
0.0
 11
2020.0
 21
-1014.5
 31
0.0
  0
LINE
  5
191
330
17
100
AcDbEntity
  8
0
 62
9
100
AcDbLine
 10
2020.0
 20
-1064.5
 30
0.0
 11
2020.0
 21
-1014.5
 31
0.0
  0
LINE
  5
192
330
17
100
AcDbEntity
  8
0
 62
9
100
AcDbLine
 10
1970.0
 20
-1014.5
 30
0.0
 11
1970.0
 21
-1064.5
 31
0.0
  0
LINE
  5
193
330
17
100
AcDbEntity
  8
0
 62
9
100
AcDbLine
 10
1970.0
 20
-1064.5
 30
0.0
 11
2020.0
 21
-1064.5
 31
0.0
  0
TEXT
  5
194
330
17
100
AcDbEntity
  8
TEXTLAYER
 62
1
100
AcDbText
 10
1995.0
 20
-1039.5
 30
0.0
 40
10.0
  1
4-10
 72
1
 11
1995.0
 21
-1039.5
 31
0.0
100
AcDbText
  0
LINE
  5
195
330
17
100
AcDbEntity
  8
0
 62
9
100
AcDbLine
 10
0.0
 20
-1188.0
 30
0.0
 11
210.0
 21
-1188.0
 31
0.0
  0
LINE
  5
196
330
17
100
AcDbEntity
  8
0
 62
9
100
AcDbLine
 10
0.0
 20
-1485.0
 30
0.0
 11
210.0
 21
-1485.0
 31
0.0
  0
LINE
  5
197
330
17
100
AcDbEntity
  8
0
 62
9
100
AcDbLine
 10
0.0
 20
-1188.0
 30
0.0
 11
0.0
 21
-1485.0
 31
0.0
  0
LINE
  5
198
330
17
100
AcDbEntity
  8
0
 62
9
100
AcDbLine
 10
210.0
 20
-1188.0
 30
0.0
 11
210.0
 21
-1485.0
 31
0.0
  0
LINE
  5
199
330
17
100
AcDbEntity
  8
0
 62
9
100
AcDbLine
 10
80.0
 20
-1311.5
 30
0.0
 11
130.0
 21
-1311.5
 31
0.0
  0
LINE
  5
19A
330
17
100
AcDbEntity
  8
0
 62
9
100
AcDbLine
 10
130.0
 20
-1361.5
 30
0.0
 11
130.0
 21
-1311.5
 31
0.0
  0
LINE
  5
19B
330
17
100
AcDbEntity
  8
0
 62
9
100
AcDbLine
 10
80.0
 20
-1311.5
 30
0.0
 11
80.0
 21
-1361.5
 31
0.0
  0
LINE
  5
19C
330
17
100
AcDbEntity
  8
0
 62
9
100
AcDbLine
 10
80.0
 20
-1361.5
 30
0.0
 11
130.0
 21
-1361.5
 31
0.0
  0
TEXT
  5
19D
330
17
100
AcDbEntity
  8
TEXTLAYER
 62
1
100
AcDbText
 10
105.0
 20
-1336.5
 30
0.0
 40
10.0
  1
5-1
 72
1
 11
105.0
 21
-1336.5
 31
0.0
100
AcDbText
  0
LINE
  5
19E
330
17
100
AcDbEntity
  8
0
 62
9
100
AcDbLine
 10
210.0
 20
-1188.0
 30
0.0
 11
420.0
 21
-1188.0
 31
0.0
  0
LINE
  5
19F
330
17
100
AcDbEntity
  8
0
 62
9
100
AcDbLine
 10
210.0
 20
-1485.0
 30
0.0
 11
420.0
 21
-1485.0
 31
0.0
  0
LINE
  5
1A0
330
17
100
AcDbEntity
  8
0
 62
9
100
AcDbLine
 10
210.0
 20
-1188.0
 30
0.0
 11
210.0
 21
-1485.0
 31
0.0
  0
LINE
  5
1A1
330
17
100
AcDbEntity
  8
0
 62
9
100
AcDbLine
 10
420.0
 20
-1188.0
 30
0.0
 11
420.0
 21
-1485.0
 31
0.0
  0
LINE
  5
1A2
330
17
100
AcDbEntity
  8
0
 62
9
100
AcDbLine
 10
290.0
 20
-1311.5
 30
0.0
 11
340.0
 21
-1311.5
 31
0.0
  0
LINE
  5
1A3
330
17
100
AcDbEntity
  8
0
 62
9
100
AcDbLine
 10
340.0
 20
-1361.5
 30
0.0
 11
340.0
 21
-1311.5
 31
0.0
  0
LINE
  5
1A4
330
17
100
AcDbEntity
  8
0
 62
9
100
AcDbLine
 10
290.0
 20
-1311.5
 30
0.0
 11
290.0
 21
-1361.5
 31
0.0
  0
LINE
  5
1A5
330
17
100
AcDbEntity
  8
0
 62
9
100
AcDbLine
 10
290.0
 20
-1361.5
 30
0.0
 11
340.0
 21
-1361.5
 31
0.0
  0
TEXT
  5
1A6
330
17
100
AcDbEntity
  8
TEXTLAYER
 62
1
100
AcDbText
 10
315.0
 20
-1336.5
 30
0.0
 40
10.0
  1
5-2
 72
1
 11
315.0
 21
-1336.5
 31
0.0
100
AcDbText
  0
LINE
  5
1A7
330
17
100
AcDbEntity
  8
0
 62
9
100
AcDbLine
 10
420.0
 20
-1188.0
 30
0.0
 11
630.0
 21
-1188.0
 31
0.0
  0
LINE
  5
1A8
330
17
100
AcDbEntity
  8
0
 62
9
100
AcDbLine
 10
420.0
 20
-1485.0
 30
0.0
 11
630.0
 21
-1485.0
 31
0.0
  0
LINE
  5
1A9
330
17
100
AcDbEntity
  8
0
 62
9
100
AcDbLine
 10
420.0
 20
-1188.0
 30
0.0
 11
420.0
 21
-1485.0
 31
0.0
  0
LINE
  5
1AA
330
17
100
AcDbEntity
  8
0
 62
9
100
AcDbLine
 10
630.0
 20
-1188.0
 30
0.0
 11
630.0
 21
-1485.0
 31
0.0
  0
LINE
  5
1AB
330
17
100
AcDbEntity
  8
0
 62
9
100
AcDbLine
 10
500.0
 20
-1311.5
 30
0.0
 11
550.0
 21
-1311.5
 31
0.0
  0
LINE
  5
1AC
330
17
100
AcDbEntity
  8
0
 62
9
100
AcDbLine
 10
550.0
 20
-1361.5
 30
0.0
 11
550.0
 21
-1311.5
 31
0.0
  0
LINE
  5
1AD
330
17
100
AcDbEntity
  8
0
 62
9
100
AcDbLine
 10
500.0
 20
-1311.5
 30
0.0
 11
500.0
 21
-1361.5
 31
0.0
  0
LINE
  5
1AE
330
17
100
AcDbEntity
  8
0
 62
9
100
AcDbLine
 10
500.0
 20
-1361.5
 30
0.0
 11
550.0
 21
-1361.5
 31
0.0
  0
TEXT
  5
1AF
330
17
100
AcDbEntity
  8
TEXTLAYER
 62
1
100
AcDbText
 10
525.0
 20
-1336.5
 30
0.0
 40
10.0
  1
5-3
 72
1
 11
525.0
 21
-1336.5
 31
0.0
100
AcDbText
  0
LINE
  5
1B0
330
17
100
AcDbEntity
  8
0
 62
9
100
AcDbLine
 10
630.0
 20
-1188.0
 30
0.0
 11
840.0
 21
-1188.0
 31
0.0
  0
LINE
  5
1B1
330
17
100
AcDbEntity
  8
0
 62
9
100
AcDbLine
 10
630.0
 20
-1485.0
 30
0.0
 11
840.0
 21
-1485.0
 31
0.0
  0
LINE
  5
1B2
330
17
100
AcDbEntity
  8
0
 62
9
100
AcDbLine
 10
630.0
 20
-1188.0
 30
0.0
 11
630.0
 21
-1485.0
 31
0.0
  0
LINE
  5
1B3
330
17
100
AcDbEntity
  8
0
 62
9
100
AcDbLine
 10
840.0
 20
-1188.0
 30
0.0
 11
840.0
 21
-1485.0
 31
0.0
  0
LINE
  5
1B4
330
17
100
AcDbEntity
  8
0
 62
9
100
AcDbLine
 10
710.0
 20
-1311.5
 30
0.0
 11
760.0
 21
-1311.5
 31
0.0
  0
LINE
  5
1B5
330
17
100
AcDbEntity
  8
0
 62
9
100
AcDbLine
 10
760.0
 20
-1361.5
 30
0.0
 11
760.0
 21
-1311.5
 31
0.0
  0
LINE
  5
1B6
330
17
100
AcDbEntity
  8
0
 62
9
100
AcDbLine
 10
710.0
 20
-1311.5
 30
0.0
 11
710.0
 21
-1361.5
 31
0.0
  0
LINE
  5
1B7
330
17
100
AcDbEntity
  8
0
 62
9
100
AcDbLine
 10
710.0
 20
-1361.5
 30
0.0
 11
760.0
 21
-1361.5
 31
0.0
  0
TEXT
  5
1B8
330
17
100
AcDbEntity
  8
TEXTLAYER
 62
1
100
AcDbText
 10
735.0
 20
-1336.5
 30
0.0
 40
10.0
  1
5-4
 72
1
 11
735.0
 21
-1336.5
 31
0.0
100
AcDbText
  0
LINE
  5
1B9
330
17
100
AcDbEntity
  8
0
 62
9
100
AcDbLine
 10
840.0
 20
-1188.0
 30
0.0
 11
1050.0
 21
-1188.0
 31
0.0
  0
LINE
  5
1BA
330
17
100
AcDbEntity
  8
0
 62
9
100
AcDbLine
 10
840.0
 20
-1485.0
 30
0.0
 11
1050.0
 21
-1485.0
 31
0.0
  0
LINE
  5
1BB
330
17
100
AcDbEntity
  8
0
 62
9
100
AcDbLine
 10
840.0
 20
-1188.0
 30
0.0
 11
840.0
 21
-1485.0
 31
0.0
  0
LINE
  5
1BC
330
17
100
AcDbEntity
  8
0
 62
9
100
AcDbLine
 10
1050.0
 20
-1188.0
 30
0.0
 11
1050.0
 21
-1485.0
 31
0.0
  0
LINE
  5
1BD
330
17
100
AcDbEntity
  8
0
 62
9
100
AcDbLine
 10
920.0
 20
-1311.5
 30
0.0
 11
970.0
 21
-1311.5
 31
0.0
  0
LINE
  5
1BE
330
17
100
AcDbEntity
  8
0
 62
9
100
AcDbLine
 10
970.0
 20
-1361.5
 30
0.0
 11
970.0
 21
-1311.5
 31
0.0
  0
LINE
  5
1BF
330
17
100
AcDbEntity
  8
0
 62
9
100
AcDbLine
 10
920.0
 20
-1311.5
 30
0.0
 11
920.0
 21
-1361.5
 31
0.0
  0
LINE
  5
1C0
330
17
100
AcDbEntity
  8
0
 62
9
100
AcDbLine
 10
920.0
 20
-1361.5
 30
0.0
 11
970.0
 21
-1361.5
 31
0.0
  0
TEXT
  5
1C1
330
17
100
AcDbEntity
  8
TEXTLAYER
 62
1
100
AcDbText
 10
945.0
 20
-1336.5
 30
0.0
 40
10.0
  1
5-5
 72
1
 11
945.0
 21
-1336.5
 31
0.0
100
AcDbText
  0
LINE
  5
1C2
330
17
100
AcDbEntity
  8
0
 62
9
100
AcDbLine
 10
1050.0
 20
-1188.0
 30
0.0
 11
1260.0
 21
-1188.0
 31
0.0
  0
LINE
  5
1C3
330
17
100
AcDbEntity
  8
0
 62
9
100
AcDbLine
 10
1050.0
 20
-1485.0
 30
0.0
 11
1260.0
 21
-1485.0
 31
0.0
  0
LINE
  5
1C4
330
17
100
AcDbEntity
  8
0
 62
9
100
AcDbLine
 10
1050.0
 20
-1188.0
 30
0.0
 11
1050.0
 21
-1485.0
 31
0.0
  0
LINE
  5
1C5
330
17
100
AcDbEntity
  8
0
 62
9
100
AcDbLine
 10
1260.0
 20
-1188.0
 30
0.0
 11
1260.0
 21
-1485.0
 31
0.0
  0
LINE
  5
1C6
330
17
100
AcDbEntity
  8
0
 62
9
100
AcDbLine
 10
1130.0
 20
-1311.5
 30
0.0
 11
1180.0
 21
-1311.5
 31
0.0
  0
LINE
  5
1C7
330
17
100
AcDbEntity
  8
0
 62
9
100
AcDbLine
 10
1180.0
 20
-1361.5
 30
0.0
 11
1180.0
 21
-1311.5
 31
0.0
  0
LINE
  5
1C8
330
17
100
AcDbEntity
  8
0
 62
9
100
AcDbLine
 10
1130.0
 20
-1311.5
 30
0.0
 11
1130.0
 21
-1361.5
 31
0.0
  0
LINE
  5
1C9
330
17
100
AcDbEntity
  8
0
 62
9
100
AcDbLine
 10
1130.0
 20
-1361.5
 30
0.0
 11
1180.0
 21
-1361.5
 31
0.0
  0
TEXT
  5
1CA
330
17
100
AcDbEntity
  8
TEXTLAYER
 62
1
100
AcDbText
 10
1155.0
 20
-1336.5
 30
0.0
 40
10.0
  1
5-6
 72
1
 11
1155.0
 21
-1336.5
 31
0.0
100
AcDbText
  0
LINE
  5
1CB
330
17
100
AcDbEntity
  8
0
 62
9
100
AcDbLine
 10
1260.0
 20
-1188.0
 30
0.0
 11
1470.0
 21
-1188.0
 31
0.0
  0
LINE
  5
1CC
330
17
100
AcDbEntity
  8
0
 62
9
100
AcDbLine
 10
1260.0
 20
-1485.0
 30
0.0
 11
1470.0
 21
-1485.0
 31
0.0
  0
LINE
  5
1CD
330
17
100
AcDbEntity
  8
0
 62
9
100
AcDbLine
 10
1260.0
 20
-1188.0
 30
0.0
 11
1260.0
 21
-1485.0
 31
0.0
  0
LINE
  5
1CE
330
17
100
AcDbEntity
  8
0
 62
9
100
AcDbLine
 10
1470.0
 20
-1188.0
 30
0.0
 11
1470.0
 21
-1485.0
 31
0.0
  0
LINE
  5
1CF
330
17
100
AcDbEntity
  8
0
 62
9
100
AcDbLine
 10
1340.0
 20
-1311.5
 30
0.0
 11
1390.0
 21
-1311.5
 31
0.0
  0
LINE
  5
1D0
330
17
100
AcDbEntity
  8
0
 62
9
100
AcDbLine
 10
1390.0
 20
-1361.5
 30
0.0
 11
1390.0
 21
-1311.5
 31
0.0
  0
LINE
  5
1D1
330
17
100
AcDbEntity
  8
0
 62
9
100
AcDbLine
 10
1340.0
 20
-1311.5
 30
0.0
 11
1340.0
 21
-1361.5
 31
0.0
  0
LINE
  5
1D2
330
17
100
AcDbEntity
  8
0
 62
9
100
AcDbLine
 10
1340.0
 20
-1361.5
 30
0.0
 11
1390.0
 21
-1361.5
 31
0.0
  0
TEXT
  5
1D3
330
17
100
AcDbEntity
  8
TEXTLAYER
 62
1
100
AcDbText
 10
1365.0
 20
-1336.5
 30
0.0
 40
10.0
  1
5-7
 72
1
 11
1365.0
 21
-1336.5
 31
0.0
100
AcDbText
  0
LINE
  5
1D4
330
17
100
AcDbEntity
  8
0
 62
9
100
AcDbLine
 10
1470.0
 20
-1188.0
 30
0.0
 11
1680.0
 21
-1188.0
 31
0.0
  0
LINE
  5
1D5
330
17
100
AcDbEntity
  8
0
 62
9
100
AcDbLine
 10
1470.0
 20
-1485.0
 30
0.0
 11
1680.0
 21
-1485.0
 31
0.0
  0
LINE
  5
1D6
330
17
100
AcDbEntity
  8
0
 62
9
100
AcDbLine
 10
1470.0
 20
-1188.0
 30
0.0
 11
1470.0
 21
-1485.0
 31
0.0
  0
LINE
  5
1D7
330
17
100
AcDbEntity
  8
0
 62
9
100
AcDbLine
 10
1680.0
 20
-1188.0
 30
0.0
 11
1680.0
 21
-1485.0
 31
0.0
  0
LINE
  5
1D8
330
17
100
AcDbEntity
  8
0
 62
9
100
AcDbLine
 10
1550.0
 20
-1311.5
 30
0.0
 11
1600.0
 21
-1311.5
 31
0.0
  0
LINE
  5
1D9
330
17
100
AcDbEntity
  8
0
 62
9
100
AcDbLine
 10
1600.0
 20
-1361.5
 30
0.0
 11
1600.0
 21
-1311.5
 31
0.0
  0
LINE
  5
1DA
330
17
100
AcDbEntity
  8
0
 62
9
100
AcDbLine
 10
1550.0
 20
-1311.5
 30
0.0
 11
1550.0
 21
-1361.5
 31
0.0
  0
LINE
  5
1DB
330
17
100
AcDbEntity
  8
0
 62
9
100
AcDbLine
 10
1550.0
 20
-1361.5
 30
0.0
 11
1600.0
 21
-1361.5
 31
0.0
  0
TEXT
  5
1DC
330
17
100
AcDbEntity
  8
TEXTLAYER
 62
1
100
AcDbText
 10
1575.0
 20
-1336.5
 30
0.0
 40
10.0
  1
5-8
 72
1
 11
1575.0
 21
-1336.5
 31
0.0
100
AcDbText
  0
LINE
  5
1DD
330
17
100
AcDbEntity
  8
0
 62
9
100
AcDbLine
 10
1680.0
 20
-1188.0
 30
0.0
 11
1890.0
 21
-1188.0
 31
0.0
  0
LINE
  5
1DE
330
17
100
AcDbEntity
  8
0
 62
9
100
AcDbLine
 10
1680.0
 20
-1485.0
 30
0.0
 11
1890.0
 21
-1485.0
 31
0.0
  0
LINE
  5
1DF
330
17
100
AcDbEntity
  8
0
 62
9
100
AcDbLine
 10
1680.0
 20
-1188.0
 30
0.0
 11
1680.0
 21
-1485.0
 31
0.0
  0
LINE
  5
1E0
330
17
100
AcDbEntity
  8
0
 62
9
100
AcDbLine
 10
1890.0
 20
-1188.0
 30
0.0
 11
1890.0
 21
-1485.0
 31
0.0
  0
LINE
  5
1E1
330
17
100
AcDbEntity
  8
0
 62
9
100
AcDbLine
 10
1760.0
 20
-1311.5
 30
0.0
 11
1810.0
 21
-1311.5
 31
0.0
  0
LINE
  5
1E2
330
17
100
AcDbEntity
  8
0
 62
9
100
AcDbLine
 10
1810.0
 20
-1361.5
 30
0.0
 11
1810.0
 21
-1311.5
 31
0.0
  0
LINE
  5
1E3
330
17
100
AcDbEntity
  8
0
 62
9
100
AcDbLine
 10
1760.0
 20
-1311.5
 30
0.0
 11
1760.0
 21
-1361.5
 31
0.0
  0
LINE
  5
1E4
330
17
100
AcDbEntity
  8
0
 62
9
100
AcDbLine
 10
1760.0
 20
-1361.5
 30
0.0
 11
1810.0
 21
-1361.5
 31
0.0
  0
TEXT
  5
1E5
330
17
100
AcDbEntity
  8
TEXTLAYER
 62
1
100
AcDbText
 10
1785.0
 20
-1336.5
 30
0.0
 40
10.0
  1
5-9
 72
1
 11
1785.0
 21
-1336.5
 31
0.0
100
AcDbText
  0
LINE
  5
1E6
330
17
100
AcDbEntity
  8
0
 62
9
100
AcDbLine
 10
1890.0
 20
-1188.0
 30
0.0
 11
2100.0
 21
-1188.0
 31
0.0
  0
LINE
  5
1E7
330
17
100
AcDbEntity
  8
0
 62
9
100
AcDbLine
 10
1890.0
 20
-1485.0
 30
0.0
 11
2100.0
 21
-1485.0
 31
0.0
  0
LINE
  5
1E8
330
17
100
AcDbEntity
  8
0
 62
9
100
AcDbLine
 10
1890.0
 20
-1188.0
 30
0.0
 11
1890.0
 21
-1485.0
 31
0.0
  0
LINE
  5
1E9
330
17
100
AcDbEntity
  8
0
 62
9
100
AcDbLine
 10
2100.0
 20
-1188.0
 30
0.0
 11
2100.0
 21
-1485.0
 31
0.0
  0
LINE
  5
1EA
330
17
100
AcDbEntity
  8
0
 62
9
100
AcDbLine
 10
1970.0
 20
-1311.5
 30
0.0
 11
2020.0
 21
-1311.5
 31
0.0
  0
LINE
  5
1EB
330
17
100
AcDbEntity
  8
0
 62
9
100
AcDbLine
 10
2020.0
 20
-1361.5
 30
0.0
 11
2020.0
 21
-1311.5
 31
0.0
  0
LINE
  5
1EC
330
17
100
AcDbEntity
  8
0
 62
9
100
AcDbLine
 10
1970.0
 20
-1311.5
 30
0.0
 11
1970.0
 21
-1361.5
 31
0.0
  0
LINE
  5
1ED
330
17
100
AcDbEntity
  8
0
 62
9
100
AcDbLine
 10
1970.0
 20
-1361.5
 30
0.0
 11
2020.0
 21
-1361.5
 31
0.0
  0
TEXT
  5
1EE
330
17
100
AcDbEntity
  8
TEXTLAYER
 62
1
100
AcDbText
 10
1995.0
 20
-1336.5
 30
0.0
 40
10.0
  1
5-10
 72
1
 11
1995.0
 21
-1336.5
 31
0.0
100
AcDbText
  0
VIEWPORT
  5
1F0
330
1B
100
AcDbEntity
 67
1
  8
VIEWPORTS
100
AcDbViewport
 10
105.0
 20
148.5
 30
0.0
 40
231.00000000000003
 41
326.70000000000005
 68
1
 69
1
 12
105.0
 22
148.5
 13
0.0
 23
0.0
 14
10.0
 24
10.0
 15
10.0
 25
10.0
 16
0.0
 26
0.0
 36
0.0
 17
0.0
 27
0.0
 37
0.0
 42
50.0
 43
0.0
 44
0.0
 45
326.70000000000005
 50
0.0
 51
0.0
 72
100
 90
557088
  1

281
0
 71
0
 74
0
110
0.0
120
0.0
130
0.0
111
1.0
121
0.0
131
0.0
112
0.0
122
1.0
132
0.0
 79
0
146
0.0
  0
VIEWPORT
  5
1F1
330
1B
100
AcDbEntity
 67
1
  8
VIEWPORTS
100
AcDbViewport
 10
105.0
 20
148.5
 30
0.0
 40
210.0
 41
297.0
 68
1
 69
3
 12
1050.0
 22
-742.5
 13
0.0
 23
0.0
 14
10.0
 24
10.0
 15
10.0
 25
10.0
 16
0.0
 26
0.0
 36
0.0
 17
0.0
 27
0.0
 37
0.0
 42
50.0
 43
0.0
 44
0.0
 45
1485.0
 50
0.0
 51
0.0
 72
100
 90
0
  1

281
0
 71
0
 74
0
110
0.0
120
0.0
130
0.0
111
1.0
121
0.0
131
0.0
112
0.0
122
1.0
132
0.0
 79
0
146
0.0
  0
ENDSEC
  0
SECTION
  2
OBJECTS
  0
DICTIONARY
  5
A
330
0
100
AcDbDictionary
281
1
  3
ACAD_COLOR
350
B
  3
ACAD_GROUP
350
C
  3
ACAD_LAYOUT
350
D
  3
ACAD_MATERIAL
350
E
  3
ACAD_MLEADERSTYLE
350
F
  3
ACAD_MLINESTYLE
350
10
  3
ACAD_PLOTSETTINGS
350
11
  3
ACAD_PLOTSTYLENAME
350
12
  3
ACAD_SCALELIST
350
14
  3
ACAD_TABLESTYLE
350
15
  3
ACAD_VISUALSTYLE
350
16
  0
DICTIONARY
  5
B
330
A
100
AcDbDictionary
281
1
  0
DICTIONARY
  5
C
330
A
100
AcDbDictionary
281
1
  0
DICTIONARY
  5
D
330
A
100
AcDbDictionary
281
1
  3
Model
350
1A
  3
Layout1
350
1E
  3
Plan 1-1
350
1F5
  3
Plan 1-2
350
1FB
  3
Plan 1-3
350
201
  3
Plan 1-4
350
207
  3
Plan 1-5
350
20D
  3
Plan 1-6
350
213
  3
Plan 1-7
350
219
  3
Plan 1-8
350
21F
  3
Plan 1-9
350
225
  3
Plan 1-10
350
22B
  3
Plan 2-1
350
231
  3
Plan 2-2
350
237
  3
Plan 2-3
350
23D
  3
Plan 2-4
350
243
  3
Plan 2-5
350
249
  3
Plan 2-6
350
24F
  3
Plan 2-7
350
255
  3
Plan 2-8
350
25B
  3
Plan 2-9
350
261
  3
Plan 2-10
350
267
  3
Plan 3-1
350
26D
  3
Plan 3-2
350
273
  3
Plan 3-3
350
279
  3
Plan 3-4
350
27F
  3
Plan 3-5
350
285
  3
Plan 3-6
350
28B
  3
Plan 3-7
350
291
  3
Plan 3-8
350
297
  3
Plan 3-9
350
29D
  3
Plan 3-10
350
2A3
  3
Plan 4-1
350
2A9
  3
Plan 4-2
350
2AF
  3
Plan 4-3
350
2B5
  3
Plan 4-4
350
2BB
  3
Plan 4-5
350
2C1
  3
Plan 4-6
350
2C7
  3
Plan 4-7
350
2CD
  3
Plan 4-8
350
2D3
  3
Plan 4-9
350
2D9
  3
Plan 4-10
350
2DF
  3
Plan 5-1
350
2E5
  3
Plan 5-2
350
2EB
  3
Plan 5-3
350
2F1
  3
Plan 5-4
350
2F7
  3
Plan 5-5
350
2FD
  3
Plan 5-6
350
303
  3
Plan 5-7
350
309
  3
Plan 5-8
350
30F
  3
Plan 5-9
350
315
  3
Plan 5-10
350
31B
  0
DICTIONARY
  5
E
330
A
100
AcDbDictionary
281
1
  3
ByBlock
350
1F
  3
ByLayer
350
20
  3
Global
350
21
  0
DICTIONARY
  5
F
330
A
100
AcDbDictionary
281
1
  3
Standard
350
2C
  0
DICTIONARY
  5
10
330
A
100
AcDbDictionary
281
1
  3
Standard
350
22
  0
DICTIONARY
  5
11
330
A
100
AcDbDictionary
281
1
  0
ACDBDICTIONARYWDFLT
  5
12
330
A
100
AcDbDictionary
281
1
  3
Normal
350
13
100
AcDbDictionaryWithDefault
340
13
  0
ACDBPLACEHOLDER
  5
13
330
12
  0
DICTIONARY
  5
14
330
A
100
AcDbDictionary
281
1
  0
DICTIONARY
  5
15
330
A
100
AcDbDictionary
281
1
  0
DICTIONARY
  5
16
330
A
100
AcDbDictionary
281
1
  0
LAYOUT
  5
1A
330
D
100
AcDbPlotSettings
  1

  2
Adobe PDF
  4
A4
  6

 40
3.175
 41
3.175
 42
3.175
 43
3.175
 44
209.91
 45
297.03
 46
0.0
 47
0.0
 48
0.0
 49
0.0
140
0.0
141
0.0
142
1.0
143
1.0
 70
1024
 72
0
 73
1
 74
5
  7

 75
16
 76
0
 77
2
 78
300
147
1.0
148
0.0
149
0.0
100
AcDbLayout
  1
Model
 70
1
 71
0
 10
-3.175
 20
-3.175
 11
293.857
 21
206.735
 12
0.0
 22
0.0
 32
0.0
 14
29.068
 24
20.356
 34
0.0
 15
261.614
 25
183.204
 35
0.0
146
0.0
 13
0.0
 23
0.0
 33
0.0
 16
1.0
 26
0.0
 36
0.0
 17
0.0
 27
1.0
 37
0.0
 76
1
330
17
  0
LAYOUT
  5
1E
330
D
100
AcDbPlotSettings
  1

  2
DWG to PDF.pc3
  4
ezdxf_(210.00_x_297.00_MM)
  6

 40
0.0
 41
0.0
 42
0.0
 43
0.0
 44
210.0
 45
297.0
 46
0.0
 47
0.0
 48
0.0
 49
0.0
140
0.0
141
0.0
142
1.0
143
1.0
 70
0
 72
1
 73
0
 74
5
  7

 75
16
 76
0
 77
2
 78
300
147
1.0
148
0.0
149
0.0
100
AcDbLayout
  1
Layout1
 70
1
 71
1
 10
-0.0
 20
-0.0
 11
210.0
 21
297.0
 12
0.0
 22
0.0
 32
0.0
 14
1e+20
 24
1e+20
 34
1e+20
 15
-1e+20
 25
-1e+20
 35
-1e+20
146
0.0
 13
0.0
 23
0.0
 33
0.0
 16
1.0
 26
0.0
 36
0.0
 17
0.0
 27
1.0
 37
0.0
 76
1
330
1B
331
1F0
  0
MATERIAL
  5
1F
102
{ACAD_REACTORS
330
E
102
}
330
E
100
AcDbMaterial
  1
ByBlock
  2

 70
0
 40
1.0
 71
1
 41
1.0
 91
-1023410177
 42
1.0
 72
1
  3

 73
1
 74
1
 75
1
 44
0.5
 73
0
 45
1.0
 46
1.0
 77
1
  4

 78
1
 79
1
170
1
 48
1.0
171
1
  6

172
1
173
1
174
1
140
1.0
141
1.0
175
1
  7

176
1
177
1
178
1
143
1.0
179
1
  8

270
1
271
1
272
1
145
1.0
146
1.0
273
1
  9

274
1
275
1
276
1
 42
1.0
 72
1
  3

 73
1
 74
1
 75
1
 94
63
  0
MATERIAL
  5
20
102
{ACAD_REACTORS
330
E
102
}
330
E
100
AcDbMaterial
  1
ByLayer
  2

 70
0
 40
1.0
 71
1
 41
1.0
 91
-1023410177
 42
1.0
 72
1
  3

 73
1
 74
1
 75
1
 44
0.5
 73
0
 45
1.0
 46
1.0
 77
1
  4

 78
1
 79
1
170
1
 48
1.0
171
1
  6

172
1
173
1
174
1
140
1.0
141
1.0
175
1
  7

176
1
177
1
178
1
143
1.0
179
1
  8

270
1
271
1
272
1
145
1.0
146
1.0
273
1
  9

274
1
275
1
276
1
 42
1.0
 72
1
  3

 73
1
 74
1
 75
1
 94
63
  0
MATERIAL
  5
21
102
{ACAD_REACTORS
330
E
102
}
330
E
100
AcDbMaterial
  1
Global
  2

 70
0
 40
1.0
 71
1
 41
1.0
 91
-1023410177
 42
1.0
 72
1
  3

 73
1
 74
1
 75
1
 44
0.5
 73
0
 45
1.0
 46
1.0
 77
1
  4

 78
1
 79
1
170
1
 48
1.0
171
1
  6

172
1
173
1
174
1
140
1.0
141
1.0
175
1
  7

176
1
177
1
178
1
143
1.0
179
1
  8

270
1
271
1
272
1
145
1.0
146
1.0
273
1
  9

274
1
275
1
276
1
 42
1.0
 72
1
  3

 73
1
 74
1
 75
1
 94
63
  0
MLINESTYLE
  5
22
102
{ACAD_REACTORS
330
10
102
}
330
10
100
AcDbMlineStyle
  2
Standard
 70
0
  3

 62
256
 51
90.0
 52
90.0
 71
2
 49
0.5
 62
256
  6
BYLAYER
 49
-0.5
 62
256
  6
BYLAYER
  0
MLEADERSTYLE
  5
2C
102
{ACAD_REACTORS
330
F
102
}
330
F
100
AcDbMLeaderStyle
179
2
170
2
171
1
172
0
 90
2
 40
0.0
 41
0.0
173
1
 91
-1056964608
 92
-2
290
1
 42
2.0
291
1
 43
8.0
  3
Standard
 44
4.0
300

342
29
174
1
175
1
176
0
178
1
 93
-1056964608
 45
4.0
292
0
297
0
 46
4.0
 94
-1056964608
 47
1.0
 49
0.0
140
1.0
294
1
141
0.0
177
0
142
1.0
295
0
296
0
143
3.75
271
0
272
9
272
9
  0
LAYOUT
  5
1F5
330
D
100
AcDbPlotSettings
  1

  2
DWG to PDF.pc3
  4
ezdxf_(210.00_x_297.00_MM)
  6

 40
0.0
 41
0.0
 42
0.0
 43
0.0
 44
210.0
 45
297.0
 46
0.0
 47
0.0
 48
0.0
 49
0.0
140
0.0
141
0.0
142
1.0
143
1.0
 70
0
 72
1
 73
0
 74
5
  7

 75
16
 76
0
 77
2
 78
300
147
1.0
148
0.0
149
0.0
100
AcDbLayout
  1
Plan 1-1
 70
1
 71
3
 10
-0.0
 20
-0.0
 11
210.0
 21
297.0
 12
0.0
 22
0.0
 32
0.0
 14
1e+20
 24
1e+20
 34
1e+20
 15
-1e+20
 25
-1e+20
 35
-1e+20
146
0.0
 13
0.0
 23
0.0
 33
0.0
 16
1.0
 26
0.0
 36
0.0
 17
0.0
 27
1.0
 37
0.0
 76
1
330
1F2
331
1F6
  0
LAYOUT
  5
1FB
330
D
100
AcDbPlotSettings
  1

  2
DWG to PDF.pc3
  4
ezdxf_(210.00_x_297.00_MM)
  6

 40
0.0
 41
0.0
 42
0.0
 43
0.0
 44
210.0
 45
297.0
 46
0.0
 47
0.0
 48
0.0
 49
0.0
140
0.0
141
0.0
142
1.0
143
1.0
 70
0
 72
1
 73
0
 74
5
  7

 75
16
 76
0
 77
2
 78
300
147
1.0
148
0.0
149
0.0
100
AcDbLayout
  1
Plan 1-2
 70
1
 71
4
 10
-0.0
 20
-0.0
 11
210.0
 21
297.0
 12
0.0
 22
0.0
 32
0.0
 14
1e+20
 24
1e+20
 34
1e+20
 15
-1e+20
 25
-1e+20
 35
-1e+20
146
0.0
 13
0.0
 23
0.0
 33
0.0
 16
1.0
 26
0.0
 36
0.0
 17
0.0
 27
1.0
 37
0.0
 76
1
330
1F8
331
1FC
  0
LAYOUT
  5
201
330
D
100
AcDbPlotSettings
  1

  2
DWG to PDF.pc3
  4
ezdxf_(210.00_x_297.00_MM)
  6

 40
0.0
 41
0.0
 42
0.0
 43
0.0
 44
210.0
 45
297.0
 46
0.0
 47
0.0
 48
0.0
 49
0.0
140
0.0
141
0.0
142
1.0
143
1.0
 70
0
 72
1
 73
0
 74
5
  7

 75
16
 76
0
 77
2
 78
300
147
1.0
148
0.0
149
0.0
100
AcDbLayout
  1
Plan 1-3
 70
1
 71
5
 10
-0.0
 20
-0.0
 11
210.0
 21
297.0
 12
0.0
 22
0.0
 32
0.0
 14
1e+20
 24
1e+20
 34
1e+20
 15
-1e+20
 25
-1e+20
 35
-1e+20
146
0.0
 13
0.0
 23
0.0
 33
0.0
 16
1.0
 26
0.0
 36
0.0
 17
0.0
 27
1.0
 37
0.0
 76
1
330
1FE
331
202
  0
LAYOUT
  5
207
330
D
100
AcDbPlotSettings
  1

  2
DWG to PDF.pc3
  4
ezdxf_(210.00_x_297.00_MM)
  6

 40
0.0
 41
0.0
 42
0.0
 43
0.0
 44
210.0
 45
297.0
 46
0.0
 47
0.0
 48
0.0
 49
0.0
140
0.0
141
0.0
142
1.0
143
1.0
 70
0
 72
1
 73
0
 74
5
  7

 75
16
 76
0
 77
2
 78
300
147
1.0
148
0.0
149
0.0
100
AcDbLayout
  1
Plan 1-4
 70
1
 71
6
 10
-0.0
 20
-0.0
 11
210.0
 21
297.0
 12
0.0
 22
0.0
 32
0.0
 14
1e+20
 24
1e+20
 34
1e+20
 15
-1e+20
 25
-1e+20
 35
-1e+20
146
0.0
 13
0.0
 23
0.0
 33
0.0
 16
1.0
 26
0.0
 36
0.0
 17
0.0
 27
1.0
 37
0.0
 76
1
330
204
331
208
  0
LAYOUT
  5
20D
330
D
100
AcDbPlotSettings
  1

  2
DWG to PDF.pc3
  4
ezdxf_(210.00_x_297.00_MM)
  6

 40
0.0
 41
0.0
 42
0.0
 43
0.0
 44
210.0
 45
297.0
 46
0.0
 47
0.0
 48
0.0
 49
0.0
140
0.0
141
0.0
142
1.0
143
1.0
 70
0
 72
1
 73
0
 74
5
  7

 75
16
 76
0
 77
2
 78
300
147
1.0
148
0.0
149
0.0
100
AcDbLayout
  1
Plan 1-5
 70
1
 71
7
 10
-0.0
 20
-0.0
 11
210.0
 21
297.0
 12
0.0
 22
0.0
 32
0.0
 14
1e+20
 24
1e+20
 34
1e+20
 15
-1e+20
 25
-1e+20
 35
-1e+20
146
0.0
 13
0.0
 23
0.0
 33
0.0
 16
1.0
 26
0.0
 36
0.0
 17
0.0
 27
1.0
 37
0.0
 76
1
330
20A
331
20E
  0
LAYOUT
  5
213
330
D
100
AcDbPlotSettings
  1

  2
DWG to PDF.pc3
  4
ezdxf_(210.00_x_297.00_MM)
  6

 40
0.0
 41
0.0
 42
0.0
 43
0.0
 44
210.0
 45
297.0
 46
0.0
 47
0.0
 48
0.0
 49
0.0
140
0.0
141
0.0
142
1.0
143
1.0
 70
0
 72
1
 73
0
 74
5
  7

 75
16
 76
0
 77
2
 78
300
147
1.0
148
0.0
149
0.0
100
AcDbLayout
  1
Plan 1-6
 70
1
 71
8
 10
-0.0
 20
-0.0
 11
210.0
 21
297.0
 12
0.0
 22
0.0
 32
0.0
 14
1e+20
 24
1e+20
 34
1e+20
 15
-1e+20
 25
-1e+20
 35
-1e+20
146
0.0
 13
0.0
 23
0.0
 33
0.0
 16
1.0
 26
0.0
 36
0.0
 17
0.0
 27
1.0
 37
0.0
 76
1
330
210
331
214
  0
LAYOUT
  5
219
330
D
100
AcDbPlotSettings
  1

  2
DWG to PDF.pc3
  4
ezdxf_(210.00_x_297.00_MM)
  6

 40
0.0
 41
0.0
 42
0.0
 43
0.0
 44
210.0
 45
297.0
 46
0.0
 47
0.0
 48
0.0
 49
0.0
140
0.0
141
0.0
142
1.0
143
1.0
 70
0
 72
1
 73
0
 74
5
  7

 75
16
 76
0
 77
2
 78
300
147
1.0
148
0.0
149
0.0
100
AcDbLayout
  1
Plan 1-7
 70
1
 71
9
 10
-0.0
 20
-0.0
 11
210.0
 21
297.0
 12
0.0
 22
0.0
 32
0.0
 14
1e+20
 24
1e+20
 34
1e+20
 15
-1e+20
 25
-1e+20
 35
-1e+20
146
0.0
 13
0.0
 23
0.0
 33
0.0
 16
1.0
 26
0.0
 36
0.0
 17
0.0
 27
1.0
 37
0.0
 76
1
330
216
331
21A
  0
LAYOUT
  5
21F
330
D
100
AcDbPlotSettings
  1

  2
DWG to PDF.pc3
  4
ezdxf_(210.00_x_297.00_MM)
  6

 40
0.0
 41
0.0
 42
0.0
 43
0.0
 44
210.0
 45
297.0
 46
0.0
 47
0.0
 48
0.0
 49
0.0
140
0.0
141
0.0
142
1.0
143
1.0
 70
0
 72
1
 73
0
 74
5
  7

 75
16
 76
0
 77
2
 78
300
147
1.0
148
0.0
149
0.0
100
AcDbLayout
  1
Plan 1-8
 70
1
 71
10
 10
-0.0
 20
-0.0
 11
210.0
 21
297.0
 12
0.0
 22
0.0
 32
0.0
 14
1e+20
 24
1e+20
 34
1e+20
 15
-1e+20
 25
-1e+20
 35
-1e+20
146
0.0
 13
0.0
 23
0.0
 33
0.0
 16
1.0
 26
0.0
 36
0.0
 17
0.0
 27
1.0
 37
0.0
 76
1
330
21C
331
220
  0
LAYOUT
  5
225
330
D
100
AcDbPlotSettings
  1

  2
DWG to PDF.pc3
  4
ezdxf_(210.00_x_297.00_MM)
  6

 40
0.0
 41
0.0
 42
0.0
 43
0.0
 44
210.0
 45
297.0
 46
0.0
 47
0.0
 48
0.0
 49
0.0
140
0.0
141
0.0
142
1.0
143
1.0
 70
0
 72
1
 73
0
 74
5
  7

 75
16
 76
0
 77
2
 78
300
147
1.0
148
0.0
149
0.0
100
AcDbLayout
  1
Plan 1-9
 70
1
 71
11
 10
-0.0
 20
-0.0
 11
210.0
 21
297.0
 12
0.0
 22
0.0
 32
0.0
 14
1e+20
 24
1e+20
 34
1e+20
 15
-1e+20
 25
-1e+20
 35
-1e+20
146
0.0
 13
0.0
 23
0.0
 33
0.0
 16
1.0
 26
0.0
 36
0.0
 17
0.0
 27
1.0
 37
0.0
 76
1
330
222
331
226
  0
LAYOUT
  5
22B
330
D
100
AcDbPlotSettings
  1

  2
DWG to PDF.pc3
  4
ezdxf_(210.00_x_297.00_MM)
  6

 40
0.0
 41
0.0
 42
0.0
 43
0.0
 44
210.0
 45
297.0
 46
0.0
 47
0.0
 48
0.0
 49
0.0
140
0.0
141
0.0
142
1.0
143
1.0
 70
0
 72
1
 73
0
 74
5
  7

 75
16
 76
0
 77
2
 78
300
147
1.0
148
0.0
149
0.0
100
AcDbLayout
  1
Plan 1-10
 70
1
 71
12
 10
-0.0
 20
-0.0
 11
210.0
 21
297.0
 12
0.0
 22
0.0
 32
0.0
 14
1e+20
 24
1e+20
 34
1e+20
 15
-1e+20
 25
-1e+20
 35
-1e+20
146
0.0
 13
0.0
 23
0.0
 33
0.0
 16
1.0
 26
0.0
 36
0.0
 17
0.0
 27
1.0
 37
0.0
 76
1
330
228
331
22C
  0
LAYOUT
  5
231
330
D
100
AcDbPlotSettings
  1

  2
DWG to PDF.pc3
  4
ezdxf_(210.00_x_297.00_MM)
  6

 40
0.0
 41
0.0
 42
0.0
 43
0.0
 44
210.0
 45
297.0
 46
0.0
 47
0.0
 48
0.0
 49
0.0
140
0.0
141
0.0
142
1.0
143
1.0
 70
0
 72
1
 73
0
 74
5
  7

 75
16
 76
0
 77
2
 78
300
147
1.0
148
0.0
149
0.0
100
AcDbLayout
  1
Plan 2-1
 70
1
 71
13
 10
-0.0
 20
-0.0
 11
210.0
 21
297.0
 12
0.0
 22
0.0
 32
0.0
 14
1e+20
 24
1e+20
 34
1e+20
 15
-1e+20
 25
-1e+20
 35
-1e+20
146
0.0
 13
0.0
 23
0.0
 33
0.0
 16
1.0
 26
0.0
 36
0.0
 17
0.0
 27
1.0
 37
0.0
 76
1
330
22E
331
232
  0
LAYOUT
  5
237
330
D
100
AcDbPlotSettings
  1

  2
DWG to PDF.pc3
  4
ezdxf_(210.00_x_297.00_MM)
  6

 40
0.0
 41
0.0
 42
0.0
 43
0.0
 44
210.0
 45
297.0
 46
0.0
 47
0.0
 48
0.0
 49
0.0
140
0.0
141
0.0
142
1.0
143
1.0
 70
0
 72
1
 73
0
 74
5
  7

 75
16
 76
0
 77
2
 78
300
147
1.0
148
0.0
149
0.0
100
AcDbLayout
  1
Plan 2-2
 70
1
 71
14
 10
-0.0
 20
-0.0
 11
210.0
 21
297.0
 12
0.0
 22
0.0
 32
0.0
 14
1e+20
 24
1e+20
 34
1e+20
 15
-1e+20
 25
-1e+20
 35
-1e+20
146
0.0
 13
0.0
 23
0.0
 33
0.0
 16
1.0
 26
0.0
 36
0.0
 17
0.0
 27
1.0
 37
0.0
 76
1
330
234
331
238
  0
LAYOUT
  5
23D
330
D
100
AcDbPlotSettings
  1

  2
DWG to PDF.pc3
  4
ezdxf_(210.00_x_297.00_MM)
  6

 40
0.0
 41
0.0
 42
0.0
 43
0.0
 44
210.0
 45
297.0
 46
0.0
 47
0.0
 48
0.0
 49
0.0
140
0.0
141
0.0
142
1.0
143
1.0
 70
0
 72
1
 73
0
 74
5
  7

 75
16
 76
0
 77
2
 78
300
147
1.0
148
0.0
149
0.0
100
AcDbLayout
  1
Plan 2-3
 70
1
 71
15
 10
-0.0
 20
-0.0
 11
210.0
 21
297.0
 12
0.0
 22
0.0
 32
0.0
 14
1e+20
 24
1e+20
 34
1e+20
 15
-1e+20
 25
-1e+20
 35
-1e+20
146
0.0
 13
0.0
 23
0.0
 33
0.0
 16
1.0
 26
0.0
 36
0.0
 17
0.0
 27
1.0
 37
0.0
 76
1
330
23A
331
23E
  0
LAYOUT
  5
243
330
D
100
AcDbPlotSettings
  1

  2
DWG to PDF.pc3
  4
ezdxf_(210.00_x_297.00_MM)
  6

 40
0.0
 41
0.0
 42
0.0
 43
0.0
 44
210.0
 45
297.0
 46
0.0
 47
0.0
 48
0.0
 49
0.0
140
0.0
141
0.0
142
1.0
143
1.0
 70
0
 72
1
 73
0
 74
5
  7

 75
16
 76
0
 77
2
 78
300
147
1.0
148
0.0
149
0.0
100
AcDbLayout
  1
Plan 2-4
 70
1
 71
16
 10
-0.0
 20
-0.0
 11
210.0
 21
297.0
 12
0.0
 22
0.0
 32
0.0
 14
1e+20
 24
1e+20
 34
1e+20
 15
-1e+20
 25
-1e+20
 35
-1e+20
146
0.0
 13
0.0
 23
0.0
 33
0.0
 16
1.0
 26
0.0
 36
0.0
 17
0.0
 27
1.0
 37
0.0
 76
1
330
240
331
244
  0
LAYOUT
  5
249
330
D
100
AcDbPlotSettings
  1

  2
DWG to PDF.pc3
  4
ezdxf_(210.00_x_297.00_MM)
  6

 40
0.0
 41
0.0
 42
0.0
 43
0.0
 44
210.0
 45
297.0
 46
0.0
 47
0.0
 48
0.0
 49
0.0
140
0.0
141
0.0
142
1.0
143
1.0
 70
0
 72
1
 73
0
 74
5
  7

 75
16
 76
0
 77
2
 78
300
147
1.0
148
0.0
149
0.0
100
AcDbLayout
  1
Plan 2-5
 70
1
 71
17
 10
-0.0
 20
-0.0
 11
210.0
 21
297.0
 12
0.0
 22
0.0
 32
0.0
 14
1e+20
 24
1e+20
 34
1e+20
 15
-1e+20
 25
-1e+20
 35
-1e+20
146
0.0
 13
0.0
 23
0.0
 33
0.0
 16
1.0
 26
0.0
 36
0.0
 17
0.0
 27
1.0
 37
0.0
 76
1
330
246
331
24A
  0
LAYOUT
  5
24F
330
D
100
AcDbPlotSettings
  1

  2
DWG to PDF.pc3
  4
ezdxf_(210.00_x_297.00_MM)
  6

 40
0.0
 41
0.0
 42
0.0
 43
0.0
 44
210.0
 45
297.0
 46
0.0
 47
0.0
 48
0.0
 49
0.0
140
0.0
141
0.0
142
1.0
143
1.0
 70
0
 72
1
 73
0
 74
5
  7

 75
16
 76
0
 77
2
 78
300
147
1.0
148
0.0
149
0.0
100
AcDbLayout
  1
Plan 2-6
 70
1
 71
18
 10
-0.0
 20
-0.0
 11
210.0
 21
297.0
 12
0.0
 22
0.0
 32
0.0
 14
1e+20
 24
1e+20
 34
1e+20
 15
-1e+20
 25
-1e+20
 35
-1e+20
146
0.0
 13
0.0
 23
0.0
 33
0.0
 16
1.0
 26
0.0
 36
0.0
 17
0.0
 27
1.0
 37
0.0
 76
1
330
24C
331
250
  0
LAYOUT
  5
255
330
D
100
AcDbPlotSettings
  1

  2
DWG to PDF.pc3
  4
ezdxf_(210.00_x_297.00_MM)
  6

 40
0.0
 41
0.0
 42
0.0
 43
0.0
 44
210.0
 45
297.0
 46
0.0
 47
0.0
 48
0.0
 49
0.0
140
0.0
141
0.0
142
1.0
143
1.0
 70
0
 72
1
 73
0
 74
5
  7

 75
16
 76
0
 77
2
 78
300
147
1.0
148
0.0
149
0.0
100
AcDbLayout
  1
Plan 2-7
 70
1
 71
19
 10
-0.0
 20
-0.0
 11
210.0
 21
297.0
 12
0.0
 22
0.0
 32
0.0
 14
1e+20
 24
1e+20
 34
1e+20
 15
-1e+20
 25
-1e+20
 35
-1e+20
146
0.0
 13
0.0
 23
0.0
 33
0.0
 16
1.0
 26
0.0
 36
0.0
 17
0.0
 27
1.0
 37
0.0
 76
1
330
252
331
256
  0
LAYOUT
  5
25B
330
D
100
AcDbPlotSettings
  1

  2
DWG to PDF.pc3
  4
ezdxf_(210.00_x_297.00_MM)
  6

 40
0.0
 41
0.0
 42
0.0
 43
0.0
 44
210.0
 45
297.0
 46
0.0
 47
0.0
 48
0.0
 49
0.0
140
0.0
141
0.0
142
1.0
143
1.0
 70
0
 72
1
 73
0
 74
5
  7

 75
16
 76
0
 77
2
 78
300
147
1.0
148
0.0
149
0.0
100
AcDbLayout
  1
Plan 2-8
 70
1
 71
20
 10
-0.0
 20
-0.0
 11
210.0
 21
297.0
 12
0.0
 22
0.0
 32
0.0
 14
1e+20
 24
1e+20
 34
1e+20
 15
-1e+20
 25
-1e+20
 35
-1e+20
146
0.0
 13
0.0
 23
0.0
 33
0.0
 16
1.0
 26
0.0
 36
0.0
 17
0.0
 27
1.0
 37
0.0
 76
1
330
258
331
25C
  0
LAYOUT
  5
261
330
D
100
AcDbPlotSettings
  1

  2
DWG to PDF.pc3
  4
ezdxf_(210.00_x_297.00_MM)
  6

 40
0.0
 41
0.0
 42
0.0
 43
0.0
 44
210.0
 45
297.0
 46
0.0
 47
0.0
 48
0.0
 49
0.0
140
0.0
141
0.0
142
1.0
143
1.0
 70
0
 72
1
 73
0
 74
5
  7

 75
16
 76
0
 77
2
 78
300
147
1.0
148
0.0
149
0.0
100
AcDbLayout
  1
Plan 2-9
 70
1
 71
21
 10
-0.0
 20
-0.0
 11
210.0
 21
297.0
 12
0.0
 22
0.0
 32
0.0
 14
1e+20
 24
1e+20
 34
1e+20
 15
-1e+20
 25
-1e+20
 35
-1e+20
146
0.0
 13
0.0
 23
0.0
 33
0.0
 16
1.0
 26
0.0
 36
0.0
 17
0.0
 27
1.0
 37
0.0
 76
1
330
25E
331
262
  0
LAYOUT
  5
267
330
D
100
AcDbPlotSettings
  1

  2
DWG to PDF.pc3
  4
ezdxf_(210.00_x_297.00_MM)
  6

 40
0.0
 41
0.0
 42
0.0
 43
0.0
 44
210.0
 45
297.0
 46
0.0
 47
0.0
 48
0.0
 49
0.0
140
0.0
141
0.0
142
1.0
143
1.0
 70
0
 72
1
 73
0
 74
5
  7

 75
16
 76
0
 77
2
 78
300
147
1.0
148
0.0
149
0.0
100
AcDbLayout
  1
Plan 2-10
 70
1
 71
22
 10
-0.0
 20
-0.0
 11
210.0
 21
297.0
 12
0.0
 22
0.0
 32
0.0
 14
1e+20
 24
1e+20
 34
1e+20
 15
-1e+20
 25
-1e+20
 35
-1e+20
146
0.0
 13
0.0
 23
0.0
 33
0.0
 16
1.0
 26
0.0
 36
0.0
 17
0.0
 27
1.0
 37
0.0
 76
1
330
264
331
268
  0
LAYOUT
  5
26D
330
D
100
AcDbPlotSettings
  1

  2
DWG to PDF.pc3
  4
ezdxf_(210.00_x_297.00_MM)
  6

 40
0.0
 41
0.0
 42
0.0
 43
0.0
 44
210.0
 45
297.0
 46
0.0
 47
0.0
 48
0.0
 49
0.0
140
0.0
141
0.0
142
1.0
143
1.0
 70
0
 72
1
 73
0
 74
5
  7

 75
16
 76
0
 77
2
 78
300
147
1.0
148
0.0
149
0.0
100
AcDbLayout
  1
Plan 3-1
 70
1
 71
23
 10
-0.0
 20
-0.0
 11
210.0
 21
297.0
 12
0.0
 22
0.0
 32
0.0
 14
1e+20
 24
1e+20
 34
1e+20
 15
-1e+20
 25
-1e+20
 35
-1e+20
146
0.0
 13
0.0
 23
0.0
 33
0.0
 16
1.0
 26
0.0
 36
0.0
 17
0.0
 27
1.0
 37
0.0
 76
1
330
26A
331
26E
  0
LAYOUT
  5
273
330
D
100
AcDbPlotSettings
  1

  2
DWG to PDF.pc3
  4
ezdxf_(210.00_x_297.00_MM)
  6

 40
0.0
 41
0.0
 42
0.0
 43
0.0
 44
210.0
 45
297.0
 46
0.0
 47
0.0
 48
0.0
 49
0.0
140
0.0
141
0.0
142
1.0
143
1.0
 70
0
 72
1
 73
0
 74
5
  7

 75
16
 76
0
 77
2
 78
300
147
1.0
148
0.0
149
0.0
100
AcDbLayout
  1
Plan 3-2
 70
1
 71
24
 10
-0.0
 20
-0.0
 11
210.0
 21
297.0
 12
0.0
 22
0.0
 32
0.0
 14
1e+20
 24
1e+20
 34
1e+20
 15
-1e+20
 25
-1e+20
 35
-1e+20
146
0.0
 13
0.0
 23
0.0
 33
0.0
 16
1.0
 26
0.0
 36
0.0
 17
0.0
 27
1.0
 37
0.0
 76
1
330
270
331
274
  0
LAYOUT
  5
279
330
D
100
AcDbPlotSettings
  1

  2
DWG to PDF.pc3
  4
ezdxf_(210.00_x_297.00_MM)
  6

 40
0.0
 41
0.0
 42
0.0
 43
0.0
 44
210.0
 45
297.0
 46
0.0
 47
0.0
 48
0.0
 49
0.0
140
0.0
141
0.0
142
1.0
143
1.0
 70
0
 72
1
 73
0
 74
5
  7

 75
16
 76
0
 77
2
 78
300
147
1.0
148
0.0
149
0.0
100
AcDbLayout
  1
Plan 3-3
 70
1
 71
25
 10
-0.0
 20
-0.0
 11
210.0
 21
297.0
 12
0.0
 22
0.0
 32
0.0
 14
1e+20
 24
1e+20
 34
1e+20
 15
-1e+20
 25
-1e+20
 35
-1e+20
146
0.0
 13
0.0
 23
0.0
 33
0.0
 16
1.0
 26
0.0
 36
0.0
 17
0.0
 27
1.0
 37
0.0
 76
1
330
276
331
27A
  0
LAYOUT
  5
27F
330
D
100
AcDbPlotSettings
  1

  2
DWG to PDF.pc3
  4
ezdxf_(210.00_x_297.00_MM)
  6

 40
0.0
 41
0.0
 42
0.0
 43
0.0
 44
210.0
 45
297.0
 46
0.0
 47
0.0
 48
0.0
 49
0.0
140
0.0
141
0.0
142
1.0
143
1.0
 70
0
 72
1
 73
0
 74
5
  7

 75
16
 76
0
 77
2
 78
300
147
1.0
148
0.0
149
0.0
100
AcDbLayout
  1
Plan 3-4
 70
1
 71
26
 10
-0.0
 20
-0.0
 11
210.0
 21
297.0
 12
0.0
 22
0.0
 32
0.0
 14
1e+20
 24
1e+20
 34
1e+20
 15
-1e+20
 25
-1e+20
 35
-1e+20
146
0.0
 13
0.0
 23
0.0
 33
0.0
 16
1.0
 26
0.0
 36
0.0
 17
0.0
 27
1.0
 37
0.0
 76
1
330
27C
331
280
  0
LAYOUT
  5
285
330
D
100
AcDbPlotSettings
  1

  2
DWG to PDF.pc3
  4
ezdxf_(210.00_x_297.00_MM)
  6

 40
0.0
 41
0.0
 42
0.0
 43
0.0
 44
210.0
 45
297.0
 46
0.0
 47
0.0
 48
0.0
 49
0.0
140
0.0
141
0.0
142
1.0
143
1.0
 70
0
 72
1
 73
0
 74
5
  7

 75
16
 76
0
 77
2
 78
300
147
1.0
148
0.0
149
0.0
100
AcDbLayout
  1
Plan 3-5
 70
1
 71
27
 10
-0.0
 20
-0.0
 11
210.0
 21
297.0
 12
0.0
 22
0.0
 32
0.0
 14
1e+20
 24
1e+20
 34
1e+20
 15
-1e+20
 25
-1e+20
 35
-1e+20
146
0.0
 13
0.0
 23
0.0
 33
0.0
 16
1.0
 26
0.0
 36
0.0
 17
0.0
 27
1.0
 37
0.0
 76
1
330
282
331
286
  0
LAYOUT
  5
28B
330
D
100
AcDbPlotSettings
  1

  2
DWG to PDF.pc3
  4
ezdxf_(210.00_x_297.00_MM)
  6

 40
0.0
 41
0.0
 42
0.0
 43
0.0
 44
210.0
 45
297.0
 46
0.0
 47
0.0
 48
0.0
 49
0.0
140
0.0
141
0.0
142
1.0
143
1.0
 70
0
 72
1
 73
0
 74
5
  7

 75
16
 76
0
 77
2
 78
300
147
1.0
148
0.0
149
0.0
100
AcDbLayout
  1
Plan 3-6
 70
1
 71
28
 10
-0.0
 20
-0.0
 11
210.0
 21
297.0
 12
0.0
 22
0.0
 32
0.0
 14
1e+20
 24
1e+20
 34
1e+20
 15
-1e+20
 25
-1e+20
 35
-1e+20
146
0.0
 13
0.0
 23
0.0
 33
0.0
 16
1.0
 26
0.0
 36
0.0
 17
0.0
 27
1.0
 37
0.0
 76
1
330
288
331
28C
  0
LAYOUT
  5
291
330
D
100
AcDbPlotSettings
  1

  2
DWG to PDF.pc3
  4
ezdxf_(210.00_x_297.00_MM)
  6

 40
0.0
 41
0.0
 42
0.0
 43
0.0
 44
210.0
 45
297.0
 46
0.0
 47
0.0
 48
0.0
 49
0.0
140
0.0
141
0.0
142
1.0
143
1.0
 70
0
 72
1
 73
0
 74
5
  7

 75
16
 76
0
 77
2
 78
300
147
1.0
148
0.0
149
0.0
100
AcDbLayout
  1
Plan 3-7
 70
1
 71
29
 10
-0.0
 20
-0.0
 11
210.0
 21
297.0
 12
0.0
 22
0.0
 32
0.0
 14
1e+20
 24
1e+20
 34
1e+20
 15
-1e+20
 25
-1e+20
 35
-1e+20
146
0.0
 13
0.0
 23
0.0
 33
0.0
 16
1.0
 26
0.0
 36
0.0
 17
0.0
 27
1.0
 37
0.0
 76
1
330
28E
331
292
  0
LAYOUT
  5
297
330
D
100
AcDbPlotSettings
  1

  2
DWG to PDF.pc3
  4
ezdxf_(210.00_x_297.00_MM)
  6

 40
0.0
 41
0.0
 42
0.0
 43
0.0
 44
210.0
 45
297.0
 46
0.0
 47
0.0
 48
0.0
 49
0.0
140
0.0
141
0.0
142
1.0
143
1.0
 70
0
 72
1
 73
0
 74
5
  7

 75
16
 76
0
 77
2
 78
300
147
1.0
148
0.0
149
0.0
100
AcDbLayout
  1
Plan 3-8
 70
1
 71
30
 10
-0.0
 20
-0.0
 11
210.0
 21
297.0
 12
0.0
 22
0.0
 32
0.0
 14
1e+20
 24
1e+20
 34
1e+20
 15
-1e+20
 25
-1e+20
 35
-1e+20
146
0.0
 13
0.0
 23
0.0
 33
0.0
 16
1.0
 26
0.0
 36
0.0
 17
0.0
 27
1.0
 37
0.0
 76
1
330
294
331
298
  0
LAYOUT
  5
29D
330
D
100
AcDbPlotSettings
  1

  2
DWG to PDF.pc3
  4
ezdxf_(210.00_x_297.00_MM)
  6

 40
0.0
 41
0.0
 42
0.0
 43
0.0
 44
210.0
 45
297.0
 46
0.0
 47
0.0
 48
0.0
 49
0.0
140
0.0
141
0.0
142
1.0
143
1.0
 70
0
 72
1
 73
0
 74
5
  7

 75
16
 76
0
 77
2
 78
300
147
1.0
148
0.0
149
0.0
100
AcDbLayout
  1
Plan 3-9
 70
1
 71
31
 10
-0.0
 20
-0.0
 11
210.0
 21
297.0
 12
0.0
 22
0.0
 32
0.0
 14
1e+20
 24
1e+20
 34
1e+20
 15
-1e+20
 25
-1e+20
 35
-1e+20
146
0.0
 13
0.0
 23
0.0
 33
0.0
 16
1.0
 26
0.0
 36
0.0
 17
0.0
 27
1.0
 37
0.0
 76
1
330
29A
331
29E
  0
LAYOUT
  5
2A3
330
D
100
AcDbPlotSettings
  1

  2
DWG to PDF.pc3
  4
ezdxf_(210.00_x_297.00_MM)
  6

 40
0.0
 41
0.0
 42
0.0
 43
0.0
 44
210.0
 45
297.0
 46
0.0
 47
0.0
 48
0.0
 49
0.0
140
0.0
141
0.0
142
1.0
143
1.0
 70
0
 72
1
 73
0
 74
5
  7

 75
16
 76
0
 77
2
 78
300
147
1.0
148
0.0
149
0.0
100
AcDbLayout
  1
Plan 3-10
 70
1
 71
32
 10
-0.0
 20
-0.0
 11
210.0
 21
297.0
 12
0.0
 22
0.0
 32
0.0
 14
1e+20
 24
1e+20
 34
1e+20
 15
-1e+20
 25
-1e+20
 35
-1e+20
146
0.0
 13
0.0
 23
0.0
 33
0.0
 16
1.0
 26
0.0
 36
0.0
 17
0.0
 27
1.0
 37
0.0
 76
1
330
2A0
331
2A4
  0
LAYOUT
  5
2A9
330
D
100
AcDbPlotSettings
  1

  2
DWG to PDF.pc3
  4
ezdxf_(210.00_x_297.00_MM)
  6

 40
0.0
 41
0.0
 42
0.0
 43
0.0
 44
210.0
 45
297.0
 46
0.0
 47
0.0
 48
0.0
 49
0.0
140
0.0
141
0.0
142
1.0
143
1.0
 70
0
 72
1
 73
0
 74
5
  7

 75
16
 76
0
 77
2
 78
300
147
1.0
148
0.0
149
0.0
100
AcDbLayout
  1
Plan 4-1
 70
1
 71
33
 10
-0.0
 20
-0.0
 11
210.0
 21
297.0
 12
0.0
 22
0.0
 32
0.0
 14
1e+20
 24
1e+20
 34
1e+20
 15
-1e+20
 25
-1e+20
 35
-1e+20
146
0.0
 13
0.0
 23
0.0
 33
0.0
 16
1.0
 26
0.0
 36
0.0
 17
0.0
 27
1.0
 37
0.0
 76
1
330
2A6
331
2AA
  0
LAYOUT
  5
2AF
330
D
100
AcDbPlotSettings
  1

  2
DWG to PDF.pc3
  4
ezdxf_(210.00_x_297.00_MM)
  6

 40
0.0
 41
0.0
 42
0.0
 43
0.0
 44
210.0
 45
297.0
 46
0.0
 47
0.0
 48
0.0
 49
0.0
140
0.0
141
0.0
142
1.0
143
1.0
 70
0
 72
1
 73
0
 74
5
  7

 75
16
 76
0
 77
2
 78
300
147
1.0
148
0.0
149
0.0
100
AcDbLayout
  1
Plan 4-2
 70
1
 71
34
 10
-0.0
 20
-0.0
 11
210.0
 21
297.0
 12
0.0
 22
0.0
 32
0.0
 14
1e+20
 24
1e+20
 34
1e+20
 15
-1e+20
 25
-1e+20
 35
-1e+20
146
0.0
 13
0.0
 23
0.0
 33
0.0
 16
1.0
 26
0.0
 36
0.0
 17
0.0
 27
1.0
 37
0.0
 76
1
330
2AC
331
2B0
  0
LAYOUT
  5
2B5
330
D
100
AcDbPlotSettings
  1

  2
DWG to PDF.pc3
  4
ezdxf_(210.00_x_297.00_MM)
  6

 40
0.0
 41
0.0
 42
0.0
 43
0.0
 44
210.0
 45
297.0
 46
0.0
 47
0.0
 48
0.0
 49
0.0
140
0.0
141
0.0
142
1.0
143
1.0
 70
0
 72
1
 73
0
 74
5
  7

 75
16
 76
0
 77
2
 78
300
147
1.0
148
0.0
149
0.0
100
AcDbLayout
  1
Plan 4-3
 70
1
 71
35
 10
-0.0
 20
-0.0
 11
210.0
 21
297.0
 12
0.0
 22
0.0
 32
0.0
 14
1e+20
 24
1e+20
 34
1e+20
 15
-1e+20
 25
-1e+20
 35
-1e+20
146
0.0
 13
0.0
 23
0.0
 33
0.0
 16
1.0
 26
0.0
 36
0.0
 17
0.0
 27
1.0
 37
0.0
 76
1
330
2B2
331
2B6
  0
LAYOUT
  5
2BB
330
D
100
AcDbPlotSettings
  1

  2
DWG to PDF.pc3
  4
ezdxf_(210.00_x_297.00_MM)
  6

 40
0.0
 41
0.0
 42
0.0
 43
0.0
 44
210.0
 45
297.0
 46
0.0
 47
0.0
 48
0.0
 49
0.0
140
0.0
141
0.0
142
1.0
143
1.0
 70
0
 72
1
 73
0
 74
5
  7

 75
16
 76
0
 77
2
 78
300
147
1.0
148
0.0
149
0.0
100
AcDbLayout
  1
Plan 4-4
 70
1
 71
36
 10
-0.0
 20
-0.0
 11
210.0
 21
297.0
 12
0.0
 22
0.0
 32
0.0
 14
1e+20
 24
1e+20
 34
1e+20
 15
-1e+20
 25
-1e+20
 35
-1e+20
146
0.0
 13
0.0
 23
0.0
 33
0.0
 16
1.0
 26
0.0
 36
0.0
 17
0.0
 27
1.0
 37
0.0
 76
1
330
2B8
331
2BC
  0
LAYOUT
  5
2C1
330
D
100
AcDbPlotSettings
  1

  2
DWG to PDF.pc3
  4
ezdxf_(210.00_x_297.00_MM)
  6

 40
0.0
 41
0.0
 42
0.0
 43
0.0
 44
210.0
 45
297.0
 46
0.0
 47
0.0
 48
0.0
 49
0.0
140
0.0
141
0.0
142
1.0
143
1.0
 70
0
 72
1
 73
0
 74
5
  7

 75
16
 76
0
 77
2
 78
300
147
1.0
148
0.0
149
0.0
100
AcDbLayout
  1
Plan 4-5
 70
1
 71
37
 10
-0.0
 20
-0.0
 11
210.0
 21
297.0
 12
0.0
 22
0.0
 32
0.0
 14
1e+20
 24
1e+20
 34
1e+20
 15
-1e+20
 25
-1e+20
 35
-1e+20
146
0.0
 13
0.0
 23
0.0
 33
0.0
 16
1.0
 26
0.0
 36
0.0
 17
0.0
 27
1.0
 37
0.0
 76
1
330
2BE
331
2C2
  0
LAYOUT
  5
2C7
330
D
100
AcDbPlotSettings
  1

  2
DWG to PDF.pc3
  4
ezdxf_(210.00_x_297.00_MM)
  6

 40
0.0
 41
0.0
 42
0.0
 43
0.0
 44
210.0
 45
297.0
 46
0.0
 47
0.0
 48
0.0
 49
0.0
140
0.0
141
0.0
142
1.0
143
1.0
 70
0
 72
1
 73
0
 74
5
  7

 75
16
 76
0
 77
2
 78
300
147
1.0
148
0.0
149
0.0
100
AcDbLayout
  1
Plan 4-6
 70
1
 71
38
 10
-0.0
 20
-0.0
 11
210.0
 21
297.0
 12
0.0
 22
0.0
 32
0.0
 14
1e+20
 24
1e+20
 34
1e+20
 15
-1e+20
 25
-1e+20
 35
-1e+20
146
0.0
 13
0.0
 23
0.0
 33
0.0
 16
1.0
 26
0.0
 36
0.0
 17
0.0
 27
1.0
 37
0.0
 76
1
330
2C4
331
2C8
  0
LAYOUT
  5
2CD
330
D
100
AcDbPlotSettings
  1

  2
DWG to PDF.pc3
  4
ezdxf_(210.00_x_297.00_MM)
  6

 40
0.0
 41
0.0
 42
0.0
 43
0.0
 44
210.0
 45
297.0
 46
0.0
 47
0.0
 48
0.0
 49
0.0
140
0.0
141
0.0
142
1.0
143
1.0
 70
0
 72
1
 73
0
 74
5
  7

 75
16
 76
0
 77
2
 78
300
147
1.0
148
0.0
149
0.0
100
AcDbLayout
  1
Plan 4-7
 70
1
 71
39
 10
-0.0
 20
-0.0
 11
210.0
 21
297.0
 12
0.0
 22
0.0
 32
0.0
 14
1e+20
 24
1e+20
 34
1e+20
 15
-1e+20
 25
-1e+20
 35
-1e+20
146
0.0
 13
0.0
 23
0.0
 33
0.0
 16
1.0
 26
0.0
 36
0.0
 17
0.0
 27
1.0
 37
0.0
 76
1
330
2CA
331
2CE
  0
LAYOUT
  5
2D3
330
D
100
AcDbPlotSettings
  1

  2
DWG to PDF.pc3
  4
ezdxf_(210.00_x_297.00_MM)
  6

 40
0.0
 41
0.0
 42
0.0
 43
0.0
 44
210.0
 45
297.0
 46
0.0
 47
0.0
 48
0.0
 49
0.0
140
0.0
141
0.0
142
1.0
143
1.0
 70
0
 72
1
 73
0
 74
5
  7

 75
16
 76
0
 77
2
 78
300
147
1.0
148
0.0
149
0.0
100
AcDbLayout
  1
Plan 4-8
 70
1
 71
40
 10
-0.0
 20
-0.0
 11
210.0
 21
297.0
 12
0.0
 22
0.0
 32
0.0
 14
1e+20
 24
1e+20
 34
1e+20
 15
-1e+20
 25
-1e+20
 35
-1e+20
146
0.0
 13
0.0
 23
0.0
 33
0.0
 16
1.0
 26
0.0
 36
0.0
 17
0.0
 27
1.0
 37
0.0
 76
1
330
2D0
331
2D4
  0
LAYOUT
  5
2D9
330
D
100
AcDbPlotSettings
  1

  2
DWG to PDF.pc3
  4
ezdxf_(210.00_x_297.00_MM)
  6

 40
0.0
 41
0.0
 42
0.0
 43
0.0
 44
210.0
 45
297.0
 46
0.0
 47
0.0
 48
0.0
 49
0.0
140
0.0
141
0.0
142
1.0
143
1.0
 70
0
 72
1
 73
0
 74
5
  7

 75
16
 76
0
 77
2
 78
300
147
1.0
148
0.0
149
0.0
100
AcDbLayout
  1
Plan 4-9
 70
1
 71
41
 10
-0.0
 20
-0.0
 11
210.0
 21
297.0
 12
0.0
 22
0.0
 32
0.0
 14
1e+20
 24
1e+20
 34
1e+20
 15
-1e+20
 25
-1e+20
 35
-1e+20
146
0.0
 13
0.0
 23
0.0
 33
0.0
 16
1.0
 26
0.0
 36
0.0
 17
0.0
 27
1.0
 37
0.0
 76
1
330
2D6
331
2DA
  0
LAYOUT
  5
2DF
330
D
100
AcDbPlotSettings
  1

  2
DWG to PDF.pc3
  4
ezdxf_(210.00_x_297.00_MM)
  6

 40
0.0
 41
0.0
 42
0.0
 43
0.0
 44
210.0
 45
297.0
 46
0.0
 47
0.0
 48
0.0
 49
0.0
140
0.0
141
0.0
142
1.0
143
1.0
 70
0
 72
1
 73
0
 74
5
  7

 75
16
 76
0
 77
2
 78
300
147
1.0
148
0.0
149
0.0
100
AcDbLayout
  1
Plan 4-10
 70
1
 71
42
 10
-0.0
 20
-0.0
 11
210.0
 21
297.0
 12
0.0
 22
0.0
 32
0.0
 14
1e+20
 24
1e+20
 34
1e+20
 15
-1e+20
 25
-1e+20
 35
-1e+20
146
0.0
 13
0.0
 23
0.0
 33
0.0
 16
1.0
 26
0.0
 36
0.0
 17
0.0
 27
1.0
 37
0.0
 76
1
330
2DC
331
2E0
  0
LAYOUT
  5
2E5
330
D
100
AcDbPlotSettings
  1

  2
DWG to PDF.pc3
  4
ezdxf_(210.00_x_297.00_MM)
  6

 40
0.0
 41
0.0
 42
0.0
 43
0.0
 44
210.0
 45
297.0
 46
0.0
 47
0.0
 48
0.0
 49
0.0
140
0.0
141
0.0
142
1.0
143
1.0
 70
0
 72
1
 73
0
 74
5
  7

 75
16
 76
0
 77
2
 78
300
147
1.0
148
0.0
149
0.0
100
AcDbLayout
  1
Plan 5-1
 70
1
 71
43
 10
-0.0
 20
-0.0
 11
210.0
 21
297.0
 12
0.0
 22
0.0
 32
0.0
 14
1e+20
 24
1e+20
 34
1e+20
 15
-1e+20
 25
-1e+20
 35
-1e+20
146
0.0
 13
0.0
 23
0.0
 33
0.0
 16
1.0
 26
0.0
 36
0.0
 17
0.0
 27
1.0
 37
0.0
 76
1
330
2E2
331
2E6
  0
LAYOUT
  5
2EB
330
D
100
AcDbPlotSettings
  1

  2
DWG to PDF.pc3
  4
ezdxf_(210.00_x_297.00_MM)
  6

 40
0.0
 41
0.0
 42
0.0
 43
0.0
 44
210.0
 45
297.0
 46
0.0
 47
0.0
 48
0.0
 49
0.0
140
0.0
141
0.0
142
1.0
143
1.0
 70
0
 72
1
 73
0
 74
5
  7

 75
16
 76
0
 77
2
 78
300
147
1.0
148
0.0
149
0.0
100
AcDbLayout
  1
Plan 5-2
 70
1
 71
44
 10
-0.0
 20
-0.0
 11
210.0
 21
297.0
 12
0.0
 22
0.0
 32
0.0
 14
1e+20
 24
1e+20
 34
1e+20
 15
-1e+20
 25
-1e+20
 35
-1e+20
146
0.0
 13
0.0
 23
0.0
 33
0.0
 16
1.0
 26
0.0
 36
0.0
 17
0.0
 27
1.0
 37
0.0
 76
1
330
2E8
331
2EC
  0
LAYOUT
  5
2F1
330
D
100
AcDbPlotSettings
  1

  2
DWG to PDF.pc3
  4
ezdxf_(210.00_x_297.00_MM)
  6

 40
0.0
 41
0.0
 42
0.0
 43
0.0
 44
210.0
 45
297.0
 46
0.0
 47
0.0
 48
0.0
 49
0.0
140
0.0
141
0.0
142
1.0
143
1.0
 70
0
 72
1
 73
0
 74
5
  7

 75
16
 76
0
 77
2
 78
300
147
1.0
148
0.0
149
0.0
100
AcDbLayout
  1
Plan 5-3
 70
1
 71
45
 10
-0.0
 20
-0.0
 11
210.0
 21
297.0
 12
0.0
 22
0.0
 32
0.0
 14
1e+20
 24
1e+20
 34
1e+20
 15
-1e+20
 25
-1e+20
 35
-1e+20
146
0.0
 13
0.0
 23
0.0
 33
0.0
 16
1.0
 26
0.0
 36
0.0
 17
0.0
 27
1.0
 37
0.0
 76
1
330
2EE
331
2F2
  0
LAYOUT
  5
2F7
330
D
100
AcDbPlotSettings
  1

  2
DWG to PDF.pc3
  4
ezdxf_(210.00_x_297.00_MM)
  6

 40
0.0
 41
0.0
 42
0.0
 43
0.0
 44
210.0
 45
297.0
 46
0.0
 47
0.0
 48
0.0
 49
0.0
140
0.0
141
0.0
142
1.0
143
1.0
 70
0
 72
1
 73
0
 74
5
  7

 75
16
 76
0
 77
2
 78
300
147
1.0
148
0.0
149
0.0
100
AcDbLayout
  1
Plan 5-4
 70
1
 71
46
 10
-0.0
 20
-0.0
 11
210.0
 21
297.0
 12
0.0
 22
0.0
 32
0.0
 14
1e+20
 24
1e+20
 34
1e+20
 15
-1e+20
 25
-1e+20
 35
-1e+20
146
0.0
 13
0.0
 23
0.0
 33
0.0
 16
1.0
 26
0.0
 36
0.0
 17
0.0
 27
1.0
 37
0.0
 76
1
330
2F4
331
2F8
  0
LAYOUT
  5
2FD
330
D
100
AcDbPlotSettings
  1

  2
DWG to PDF.pc3
  4
ezdxf_(210.00_x_297.00_MM)
  6

 40
0.0
 41
0.0
 42
0.0
 43
0.0
 44
210.0
 45
297.0
 46
0.0
 47
0.0
 48
0.0
 49
0.0
140
0.0
141
0.0
142
1.0
143
1.0
 70
0
 72
1
 73
0
 74
5
  7

 75
16
 76
0
 77
2
 78
300
147
1.0
148
0.0
149
0.0
100
AcDbLayout
  1
Plan 5-5
 70
1
 71
47
 10
-0.0
 20
-0.0
 11
210.0
 21
297.0
 12
0.0
 22
0.0
 32
0.0
 14
1e+20
 24
1e+20
 34
1e+20
 15
-1e+20
 25
-1e+20
 35
-1e+20
146
0.0
 13
0.0
 23
0.0
 33
0.0
 16
1.0
 26
0.0
 36
0.0
 17
0.0
 27
1.0
 37
0.0
 76
1
330
2FA
331
2FE
  0
LAYOUT
  5
303
330
D
100
AcDbPlotSettings
  1

  2
DWG to PDF.pc3
  4
ezdxf_(210.00_x_297.00_MM)
  6

 40
0.0
 41
0.0
 42
0.0
 43
0.0
 44
210.0
 45
297.0
 46
0.0
 47
0.0
 48
0.0
 49
0.0
140
0.0
141
0.0
142
1.0
143
1.0
 70
0
 72
1
 73
0
 74
5
  7

 75
16
 76
0
 77
2
 78
300
147
1.0
148
0.0
149
0.0
100
AcDbLayout
  1
Plan 5-6
 70
1
 71
48
 10
-0.0
 20
-0.0
 11
210.0
 21
297.0
 12
0.0
 22
0.0
 32
0.0
 14
1e+20
 24
1e+20
 34
1e+20
 15
-1e+20
 25
-1e+20
 35
-1e+20
146
0.0
 13
0.0
 23
0.0
 33
0.0
 16
1.0
 26
0.0
 36
0.0
 17
0.0
 27
1.0
 37
0.0
 76
1
330
300
331
304
  0
LAYOUT
  5
309
330
D
100
AcDbPlotSettings
  1

  2
DWG to PDF.pc3
  4
ezdxf_(210.00_x_297.00_MM)
  6

 40
0.0
 41
0.0
 42
0.0
 43
0.0
 44
210.0
 45
297.0
 46
0.0
 47
0.0
 48
0.0
 49
0.0
140
0.0
141
0.0
142
1.0
143
1.0
 70
0
 72
1
 73
0
 74
5
  7

 75
16
 76
0
 77
2
 78
300
147
1.0
148
0.0
149
0.0
100
AcDbLayout
  1
Plan 5-7
 70
1
 71
49
 10
-0.0
 20
-0.0
 11
210.0
 21
297.0
 12
0.0
 22
0.0
 32
0.0
 14
1e+20
 24
1e+20
 34
1e+20
 15
-1e+20
 25
-1e+20
 35
-1e+20
146
0.0
 13
0.0
 23
0.0
 33
0.0
 16
1.0
 26
0.0
 36
0.0
 17
0.0
 27
1.0
 37
0.0
 76
1
330
306
331
30A
  0
LAYOUT
  5
30F
330
D
100
AcDbPlotSettings
  1

  2
DWG to PDF.pc3
  4
ezdxf_(210.00_x_297.00_MM)
  6

 40
0.0
 41
0.0
 42
0.0
 43
0.0
 44
210.0
 45
297.0
 46
0.0
 47
0.0
 48
0.0
 49
0.0
140
0.0
141
0.0
142
1.0
143
1.0
 70
0
 72
1
 73
0
 74
5
  7

 75
16
 76
0
 77
2
 78
300
147
1.0
148
0.0
149
0.0
100
AcDbLayout
  1
Plan 5-8
 70
1
 71
50
 10
-0.0
 20
-0.0
 11
210.0
 21
297.0
 12
0.0
 22
0.0
 32
0.0
 14
1e+20
 24
1e+20
 34
1e+20
 15
-1e+20
 25
-1e+20
 35
-1e+20
146
0.0
 13
0.0
 23
0.0
 33
0.0
 16
1.0
 26
0.0
 36
0.0
 17
0.0
 27
1.0
 37
0.0
 76
1
330
30C
331
310
  0
LAYOUT
  5
315
330
D
100
AcDbPlotSettings
  1

  2
DWG to PDF.pc3
  4
ezdxf_(210.00_x_297.00_MM)
  6

 40
0.0
 41
0.0
 42
0.0
 43
0.0
 44
210.0
 45
297.0
 46
0.0
 47
0.0
 48
0.0
 49
0.0
140
0.0
141
0.0
142
1.0
143
1.0
 70
0
 72
1
 73
0
 74
5
  7

 75
16
 76
0
 77
2
 78
300
147
1.0
148
0.0
149
0.0
100
AcDbLayout
  1
Plan 5-9
 70
1
 71
51
 10
-0.0
 20
-0.0
 11
210.0
 21
297.0
 12
0.0
 22
0.0
 32
0.0
 14
1e+20
 24
1e+20
 34
1e+20
 15
-1e+20
 25
-1e+20
 35
-1e+20
146
0.0
 13
0.0
 23
0.0
 33
0.0
 16
1.0
 26
0.0
 36
0.0
 17
0.0
 27
1.0
 37
0.0
 76
1
330
312
331
316
  0
LAYOUT
  5
31B
330
D
100
AcDbPlotSettings
  1

  2
DWG to PDF.pc3
  4
ezdxf_(210.00_x_297.00_MM)
  6

 40
0.0
 41
0.0
 42
0.0
 43
0.0
 44
210.0
 45
297.0
 46
0.0
 47
0.0
 48
0.0
 49
0.0
140
0.0
141
0.0
142
1.0
143
1.0
 70
0
 72
1
 73
0
 74
5
  7

 75
16
 76
0
 77
2
 78
300
147
1.0
148
0.0
149
0.0
100
AcDbLayout
  1
Plan 5-10
 70
1
 71
52
 10
-0.0
 20
-0.0
 11
210.0
 21
297.0
 12
0.0
 22
0.0
 32
0.0
 14
1e+20
 24
1e+20
 34
1e+20
 15
-1e+20
 25
-1e+20
 35
-1e+20
146
0.0
 13
0.0
 23
0.0
 33
0.0
 16
1.0
 26
0.0
 36
0.0
 17
0.0
 27
1.0
 37
0.0
 76
1
330
318
331
31C
  0
ENDSEC
  0
EOF
