  0
SECTION
  2
HEADER
  9
$ACADVER
  1
AC1015
  9
$ACADMAINTVER
 70
6
  9
$DWGCODEPAGE
  3
ANSI_1252
  9
$INSBASE
 10
0.0
 20
0.0
 30
0.0
  9
$EXTMIN
 10
-100
 20
-100
 30
-100
  9
$EXTMAX
 10
100
 20
100
 30
100
  9
$LIMMIN
 10
0.0
 20
0.0
  9
$LIMMAX
 10
420.0
 20
297.0
  9
$ORTHOMODE
 70
0
  9
$REGENMODE
 70
1
  9
$FILLMODE
 70
1
  9
$QTEXTMODE
 70
0
  9
$MIRRTEXT
 70
1
  9
$LTSCALE
 40
1.0
  9
$ATTMODE
 70
1
  9
$TEXTSIZE
 40
2.5
  9
$TRACEWID
 40
1.0
  9
$TEXTSTYLE
  7
Standard
  9
$CLAYER
  8
0
  9
$CELTYPE
  6
ByLayer
  9
$CECOLOR
 62
256
  9
$CELTSCALE
 40
1.0
  9
$DISPSILH
 70
0
  9
$DIMSCALE
 40
1.0
  9
$DIMASZ
 40
2.5
  9
$DIMEXO
 40
0.625
  9
$DIMDLI
 40
3.75
  9
$DIMRND
 40
0.0
  9
$DIMDLE
 40
0.0
  9
$DIMEXE
 40
1.25
  9
$DIMTP
 40
0.0
  9
$DIMTM
 40
0.0
  9
$DIMTXT
 40
2.5
  9
$DIMCEN
 40
2.5
  9
$DIMTSZ
 40
0.0
  9
$DIMTOL
 70
0
  9
$DIMLIM
 70
0
  9
$DIMTIH
 70
0
  9
$DIMTOH
 70
0
  9
$DIMSE1
 70
0
  9
$DIMSE2
 70
0
  9
$DIMTAD
 70
1
  9
$DIMZIN
 70
8
  9
$DIMBLK
  1

  9
$DIMASO
 70
1
  9
$DIMSHO
 70
1
  9
$DIMPOST
  1

  9
$DIMAPOST
  1

  9
$DIMALT
 70
0
  9
$DIMALTD
 70
3
  9
$DIMALTF
 40
0.03937007874
  9
$DIMLFAC
 40
1.0
  9
$DIMTOFL
 70
1
  9
$DIMTVP
 40
0.0
  9
$DIMTIX
 70
0
  9
$DIMSOXD
 70
0
  9
$DIMSAH
 70
0
  9
$DIMBLK1
  1

  9
$DIMBLK2
  1

  9
$DIMSTYLE
  2
ISO-25
  9
$DIMCLRD
 70
0
  9
$DIMCLRE
 70
0
  9
$DIMCLRT
 70
0
  9
$DIMTFAC
 40
1.0
  9
$DIMGAP
 40
0.625
  9
$DIMJUST
 70
0
  9
$DIMSD1
 70
0
  9
$DIMSD2
 70
0
  9
$DIMTOLJ
 70
0
  9
$DIMTZIN
 70
8
  9
$DIMALTZ
 70
0
  9
$DIMALTTZ
 70
0
  9
$DIMUPT
 70
0
  9
$DIMDEC
 70
2
  9
$DIMTDEC
 70
2
  9
$DIMALTU
 70
2
  9
$DIMALTTD
 70
3
  9
$DIMTXSTY
  7
Standard
  9
$DIMAUNIT
 70
0
  9
$DIMADEC
 70
0
  9
$DIMALTRND
 40
0.0
  9
$DIMAZIN
 70
0
  9
$DIMDSEP
 70
44
  9
$DIMATFIT
 70
3
  9
$DIMFRAC
 70
0
  9
$DIMLDRBLK
  1

  9
$DIMLUNIT
 70
2
  9
$DIMLWD
 70
-2
  9
$DIMLWE
 70
-2
  9
$DIMTMOVE
 70
0
  9
$LUNITS
 70
2
  9
$LUPREC
 70
4
  9
$SKETCHINC
 40
1.0
  9
$FILLETRAD
 40
10.0
  9
$AUNITS
 70
0
  9
$AUPREC
 70
2
  9
$MENU
  1
.
  9
$ELEVATION
 40
0.0
  9
$PELEVATION
 40
0.0
  9
$THICKNESS
 40
0.0
  9
$LIMCHECK
 70
0
  9
$CHAMFERA
 40
0.0
  9
$CHAMFERB
 40
0.0
  9
$CHAMFERC
 40
0.0
  9
$CHAMFERD
 40
0.0
  9
$SKPOLY
 70
0
  9
$TDCREATE
 40
2459188.9727083333
  9
$TDUCREATE
 40
2458532.153996898
  9
$TDUPDATE
 40
2459188.9727083333
  9
$TDUUPDATE
 40
2458532.1544311
  9
$TDINDWG
 40
0.0
  9
$TDUSRTIMER
 40
0.0
  9
$USRTIMER
 70
1
  9
$ANGBASE
 50
0.0
  9
$ANGDIR
 70
0
  9
$PDMODE
 70
0
  9
$PDSIZE
 40
0.0
  9
$PLINEWID
 40
0.0
  9
$SPLFRAME
 70
0
  9
$SPLINETYPE
 70
6
  9
$SPLINESEGS
 70
8
  9
$HANDSEED
  5
1A8
  9
$SURFTAB1
 70
6
  9
$SURFTAB2
 70
6
  9
$SURFTYPE
 70
6
  9
$SURFU
 70
6
  9
$SURFV
 70
6
  9
$UCSBASE
  2

  9
$UCSNAME
  2

  9
$UCSORG
 10
0.0
 20
0.0
 30
0.0
  9
$UCSXDIR
 10
1.0
 20
0.0
 30
0.0
  9
$UCSYDIR
 10
0.0
 20
1.0
 30
0.0
  9
$UCSORTHOREF
  2

  9
$UCSORTHOVIEW
 70
0
  9
$UCSORGTOP
 10
0.0
 20
0.0
 30
0.0
  9
$UCSORGBOTTOM
 10
0.0
 20
0.0
 30
0.0
  9
$UCSORGLEFT
 10
0.0
 20
0.0
 30
0.0
  9
$UCSORGRIGHT
 10
0.0
 20
0.0
 30
0.0
  9
$UCSORGFRONT
 10
0.0
 20
0.0
 30
0.0
  9
$UCSORGBACK
 10
0.0
 20
0.0
 30
0.0
  9
$PUCSBASE
  2

  9
$PUCSNAME
  2

  9
$PUCSORG
 10
0.0
 20
0.0
 30
0.0
  9
$PUCSXDIR
 10
1.0
 20
0.0
 30
0.0
  9
$PUCSYDIR
 10
0.0
 20
1.0
 30
0.0
  9
$PUCSORTHOREF
  2

  9
$PUCSORTHOVIEW
 70
0
  9
$PUCSORGTOP
 10
0.0
 20
0.0
 30
0.0
  9
$PUCSORGBOTTOM
 10
0.0
 20
0.0
 30
0.0
  9
$PUCSORGLEFT
 10
0.0
 20
0.0
 30
0.0
  9
$PUCSORGRIGHT
 10
0.0
 20
0.0
 30
0.0
  9
$PUCSORGFRONT
 10
0.0
 20
0.0
 30
0.0
  9
$PUCSORGBACK
 10
0.0
 20
0.0
 30
0.0
  9
$USERI1
 70
0
  9
$USERI2
 70
0
  9
$USERI3
 70
0
  9
$USERI4
 70
0
  9
$USERI5
 70
0
  9
$USERR1
 40
0.0
  9
$USERR2
 40
0.0
  9
$USERR3
 40
0.0
  9
$USERR4
 40
0.0
  9
$USERR5
 40
0.0
  9
$WORLDVIEW
 70
1
  9
$SHADEDGE
 70
3
  9
$SHADEDIF
 70
70
  9
$TILEMODE
 70
1
  9
$MAXACTVP
 70
64
  9
$PINSBASE
 10
0.0
 20
0.0
 30
0.0
  9
$PLIMCHECK
 70
0
  9
$PEXTMIN
 10
1e+20
 20
1e+20
 30
1e+20
  9
$PEXTMAX
 10
-1e+20
 20
-1e+20
 30
-1e+20
  9
$PLIMMIN
 10
0.0
 20
0.0
  9
$PLIMMAX
 10
420.0
 20
297.0
  9
$UNITMODE
 70
0
  9
$VISRETAIN
 70
1
  9
$PLINEGEN
 70
0
  9
$PSLTSCALE
 70
1
  9
$TREEDEPTH
 70
3020
  9
$CMLSTYLE
  2
Standard
  9
$CMLJUST
 70
0
  9
$CMLSCALE
 40
20.0
  9
$PROXYGRAPHICS
 70
1
  9
$MEASUREMENT
 70
1
  9
$CELWEIGHT
370
-1
  9
$ENDCAPS
280
0
  9
$JOINSTYLE
280
0
  9
$LWDISPLAY
290
0
  9
$INSUNITS
 70
6
  9
$HYPERLINKBASE
  1

  9
$STYLESHEET
  1

  9
$XEDIT
290
1
  9
$CEPSNTYPE
380
0
  9
$PSTYLEMODE
290
1
  9
$FINGERPRINTGUID
  2
F2870AA2-367E-11EB-B1A5-C2B9DDCE3D85
  9
$VERSIONGUID
  2
F2870AA4-367E-11EB-B1A5-C2B9DDCE3D85
  9
$EXTNAMES
290
1
  9
$PSVPSCALE
 40
0.0
  9
$OLESTARTUP
290
0
  0
ENDSEC
  0
SECTION
  2
CLASSES
  0
CLASS
  1
ACDBDICTIONARYWDFLT
  2
AcDbDictionaryWithDefault
  3
ObjectDBX Classes
 90
0
280
0
281
0
  0
CLASS
  1
SUN
  2
AcDbSun
  3
SCENEOE
 90
1153
280
0
281
0
  0
CLASS
  1
VISUALSTYLE
  2
AcDbVisualStyle
  3
ObjectDBX Classes
 90
4095
280
0
281
0
  0
CLASS
  1
MATERIAL
  2
AcDbMaterial
  3
ObjectDBX Classes
 90
1153
280
0
281
0
  0
CLASS
  1
SCALE
  2
AcDbScale
  3
ObjectDBX Classes
 90
1153
280
0
281
0
  0
CLASS
  1
TABLESTYLE
  2
AcDbTableStyle
  3
ObjectDBX Classes
 90
4095
280
0
281
0
  0
CLASS
  1
MLEADERSTYLE
  2
AcDbMLeaderStyle
  3
ACDB_MLEADERSTYLE_CLASS
 90
4095
280
0
281
0
  0
CLASS
  1
DICTIONARYVAR
  2
AcDbDictionaryVar
  3
ObjectDBX Classes
 90
0
280
0
281
0
  0
CLASS
  1
CELLSTYLEMAP
  2
AcDbCellStyleMap
  3
ObjectDBX Classes
 90
1152
280
0
281
0
  0
CLASS
  1
MENTALRAYRENDERSETTINGS
  2
AcDbMentalRayRenderSettings
  3
SCENEOE
 90
1024
280
0
281
0
  0
CLASS
  1
ACDBDETAILVIEWSTYLE
  2
AcDbDetailViewStyle
  3
ObjectDBX Classes
 90
1025
280
0
281
0
  0
CLASS
  1
ACDBSECTIONVIEWSTYLE
  2
AcDbSectionViewStyle
  3
ObjectDBX Classes
 90
1025
280
0
281
0
  0
CLASS
  1
RASTERVARIABLES
  2
AcDbRasterVariables
  3
ISM
 90
0
280
0
281
0
  0
CLASS
  1
ACDBPLACEHOLDER
  2
AcDbPlaceHolder
  3
ObjectDBX Classes
 90
0
280
0
281
0
  0
CLASS
  1
LAYOUT
  2
AcDbLayout
  3
ObjectDBX Classes
 90
0
280
0
281
0
  0
ENDSEC
  0
SECTION
  2
TABLES
  0
TABLE
  2
VPORT
  5
8
330
0
100
AcDbSymbolTable
 70
1
  0
VPORT
  5
10E
330
8
100
AcDbSymbolTableRecord
100
AcDbViewportTableRecord
  2
*ACTIVE
 70
0
 10
0.0
 20
0.0
 11
1.0
 21
1.0
 12
1700.0
 22
-1700.0
 13
0.0
 23
0.0
 14
0.5
 24
0.5
 15
0.5
 25
0.5
 16
0.0
 26
0.0
 36
1.0
 17
0.0
 27
0.0
 37
0.0
 40
5400.0
 41
1.0
 42
50.0
 43
0.0
 44
0.0
 50
0.0
 51
0.0
 71
0
 72
1000
 73
1
 74
3
 75
0
 76
0
 77
0
 78
0
281
0
 65
0
146
0.0
  0
ENDTAB
  0
TABLE
  2
LTYPE
  5
2
330
0
100
AcDbSymbolTable
 70
3
  0
LTYPE
  5
24
330
2
100
AcDbSymbolTableRecord
100
AcDbLinetypeTableRecord
  2
ByBlock
 70
0
  3

 72
65
 73
0
 40
0.0
  0
LTYPE
  5
25
330
2
100
AcDbSymbolTableRecord
100
AcDbLinetypeTableRecord
  2
ByLayer
 70
0
  3

 72
65
 73
0
 40
0.0
  0
LTYPE
  5
26
330
2
100
AcDbSymbolTableRecord
100
AcDbLinetypeTableRecord
  2
Continuous
 70
0
  3

 72
65
 73
0
 40
0.0
  0
ENDTAB
  0
TABLE
  2
LAYER
  5
1
330
0
100
AcDbSymbolTable
 70
2
  0
LAYER
  5
27
330
1
100
AcDbSymbolTableRecord
100
AcDbLayerTableRecord
  2
0
 70
0
 62
7
  6
Continuous
370
-3
390
13
  0
LAYER
  5
28
330
1
100
AcDbSymbolTableRecord
100
AcDbLayerTableRecord
  2
Defpoints
 70
0
 62
7
  6
Continuous
290
0
370
-3
390
13
  0
ENDTAB
  0
TABLE
  2
STYLE
  5
5
330
0
100
AcDbSymbolTable
 70
1
  0
STYLE
  5
29
330
5
100
AcDbSymbolTableRecord
100
AcDbTextStyleTableRecord
  2
Standard
 70
0
 40
0.0
 41
1.0
 50
0.0
 71
0
 42
2.5
  3
txt
  4

  0
ENDTAB
  0
TABLE
  2
VIEW
  5
7
330
0
100
AcDbSymbolTable
 70
0
  0
ENDTAB
  0
TABLE
  2
UCS
  5
6
330
0
100
AcDbSymbolTable
 70
0
  0
ENDTAB
  0
TABLE
  2
APPID
  5
3
330
0
100
AcDbSymbolTable
 70
2
  0
APPID
  5
2A
330
3
100
AcDbSymbolTableRecord
100
AcDbRegAppTableRecord
  2
ACAD
 70
0
  0
APPID
  5
1A7
330
3
100
AcDbSymbolTableRecord
100
AcDbRegAppTableRecord
  2
HATCHBACKGROUNDCOLOR
 70
0
  0
ENDTAB
  0
TABLE
  2
DIMSTYLE
  5
4
330
0
100
AcDbSymbolTable
 70
1
100
AcDbDimStyleTable
  0
DIMSTYLE
105
2B
330
4
100
AcDbSymbolTableRecord
100
AcDbDimStyleTableRecord
  2
Standard
 70
0
  3

  4

 40
1.0
 41
2.5
 42
0.625
 43
3.75
 44
1.25
 45
0.0
 46
0.0
 47
0.0
 48
0.0
140
2.5
141
2.5
142
0.0
143
0.03937007874
144
1.0
145
0.0
146
1.0
147
0.625
148
0.0
 71
0
 72
0
 73
0
 74
0
 75
0
 76
0
 77
1
 78
8
 79
0
170
0
171
3
172
1
173
0
174
0
175
0
176
0
177
0
178
0
179
0
271
0
272
2
273
2
274
3
275
0
276
0
277
2
278
44
279
0
280
0
281
0
282
0
283
0
284
8
285
0
286
0
288
0
289
3
371
-2
372
-2
  0
ENDTAB
  0
TABLE
  2
BLOCK_RECORD
  5
9
330
0
100
AcDbSymbolTable
 70
27
  0
BLOCK_RECORD
  5
17
330
9
100
AcDbSymbolTableRecord
100
AcDbBlockTableRecord
  2
*Model_Space
340
1A
  0
BLOCK_RECORD
  5
1B
330
9
100
AcDbSymbolTableRecord
100
AcDbBlockTableRecord
  2
*Paper_Space
340
1E
  0
BLOCK_RECORD
  5
111
330
9
100
AcDbSymbolTableRecord
100
AcDbBlockTableRecord
  2
*Paper_Space0
340
114
  0
BLOCK_RECORD
  5
117
330
9
100
AcDbSymbolTableRecord
100
AcDbBlockTableRecord
  2
*Paper_Space1
340
11A
  0
BLOCK_RECORD
  5
11D
330
9
100
AcDbSymbolTableRecord
100
AcDbBlockTableRecord
  2
*Paper_Space2
340
120
  0
BLOCK_RECORD
  5
123
330
9
100
AcDbSymbolTableRecord
100
AcDbBlockTableRecord
  2
*Paper_Space3
340
126
  0
BLOCK_RECORD
  5
129
330
9
100
AcDbSymbolTableRecord
100
AcDbBlockTableRecord
  2
*Paper_Space4
340
12C
  0
BLOCK_RECORD
  5
12F
330
9
100
AcDbSymbolTableRecord
100
AcDbBlockTableRecord
  2
*Paper_Space5
340
132
  0
BLOCK_RECORD
  5
135
330
9
100
AcDbSymbolTableRecord
100
AcDbBlockTableRecord
  2
*Paper_Space6
340
138
  0
BLOCK_RECORD
  5
13B
330
9
100
AcDbSymbolTableRecord
100
AcDbBlockTableRecord
  2
*Paper_Space7
340
13E
  0
BLOCK_RECORD
  5
141
330
9
100
AcDbSymbolTableRecord
100
AcDbBlockTableRecord
  2
*Paper_Space8
340
144
  0
BLOCK_RECORD
  5
147
330
9
100
AcDbSymbolTableRecord
100
AcDbBlockTableRecord
  2
*Paper_Space9
340
14A
  0
BLOCK_RECORD
  5
14D
330
9
100
AcDbSymbolTableRecord
100
AcDbBlockTableRecord
  2
*Paper_Space10
340
150
  0
BLOCK_RECORD
  5
153
330
9
100
AcDbSymbolTableRecord
100
AcDbBlockTableRecord
  2
*Paper_Space11
340
156
  0
BLOCK_RECORD
  5
159
330
9
100
AcDbSymbolTableRecord
100
AcDbBlockTableRecord
  2
*Paper_Space12
340
15C
  0
BLOCK_RECORD
  5
15F
330
9
100
AcDbSymbolTableRecord
100
AcDbBlockTableRecord
  2
*Paper_Space13
340
162
  0
BLOCK_RECORD
  5
165
330
9
100
AcDbSymbolTableRecord
100
AcDbBlockTableRecord
  2
*Paper_Space14
340
168
  0
BLOCK_RECORD
  5
16B
330
9
100
AcDbSymbolTableRecord
100
AcDbBlockTableRecord
  2
*Paper_Space15
340
16E
  0
BLOCK_RECORD
  5
171
330
9
100
AcDbSymbolTableRecord
100
AcDbBlockTableRecord
  2
*Paper_Space16
340
174
  0
BLOCK_RECORD
  5
177
330
9
100
AcDbSymbolTableRecord
100
AcDbBlockTableRecord
  2
*Paper_Space17
340
17A
  0
BLOCK_RECORD
  5
17D
330
9
100
AcDbSymbolTableRecord
100
AcDbBlockTableRecord
  2
*Paper_Space18
340
180
  0
BLOCK_RECORD
  5
183
330
9
100
AcDbSymbolTableRecord
100
AcDbBlockTableRecord
  2
*Paper_Space19
340
186
  0
BLOCK_RECORD
  5
189
330
9
100
AcDbSymbolTableRecord
100
AcDbBlockTableRecord
  2
*Paper_Space20
340
18C
  0
BLOCK_RECORD
  5
18F
330
9
100
AcDbSymbolTableRecord
100
AcDbBlockTableRecord
  2
*Paper_Space21
340
192
  0
BLOCK_RECORD
  5
195
330
9
100
AcDbSymbolTableRecord
100
AcDbBlockTableRecord
  2
*Paper_Space22
340
198
  0
BLOCK_RECORD
  5
19B
330
9
100
AcDbSymbolTableRecord
100
AcDbBlockTableRecord
  2
*Paper_Space23
340
19E
  0
BLOCK_RECORD
  5
1A1
330
9
100
AcDbSymbolTableRecord
100
AcDbBlockTableRecord
  2
*Paper_Space24
340
1A4
  0
ENDTAB
  0
ENDSEC
  0
SECTION
  2
BLOCKS
  0
BLOCK
  5
18
330
17
100
AcDbEntity
  8
0
100
AcDbBlockBegin
  2
*Model_Space
 70
0
 10
0.0
 20
0.0
 30
0.0
  3
*Model_Space
  1

  0
ENDBLK
  5
19
330
17
100
AcDbEntity
  8
0
100
AcDbBlockEnd
  0
BLOCK
  5
1C
330
1B
100
AcDbEntity
  8
0
100
AcDbBlockBegin
  2
*Paper_Space
 70
0
 10
0.0
 20
0.0
 30
0.0
  3
*Paper_Space
  1

  0
ENDBLK
  5
1D
330
1B
100
AcDbEntity
  8
0
100
AcDbBlockEnd
  0
BLOCK
  5
112
330
111
100
AcDbEntity
  8
0
100
AcDbBlockBegin
  2
*Paper_Space0
 70
0
 10
0.0
 20
0.0
 30
0.0
  3
*Paper_Space0
  1

  0
VIEWPORT
  5
115
330
111
100
AcDbEntity
 67
1
  8
VIEWPORTS
100
AcDbViewport
 10
148.5
 20
210.0
 30
0.0
 40
326.70000000000005
 41
462.00000000000006
 68
1
 69
1
 12
148.5
 22
210.0
 13
0.0
 23
0.0
 14
10.0
 24
10.0
 15
10.0
 25
10.0
 16
0.0
 26
0.0
 36
0.0
 17
0.0
 27
0.0
 37
0.0
 42
50.0
 43
0.0
 44
0.0
 45
462.00000000000006
 50
0.0
 51
0.0
 72
100
 90
557088
  1

281
0
 71
0
 74
0
110
0.0
120
0.0
130
0.0
111
1.0
121
0.0
131
0.0
112
0.0
122
1.0
132
0.0
 79
0
146
0.0
  0
VIEWPORT
  5
116
330
111
100
AcDbEntity
 67
1
  8
VIEWPORTS
100
AcDbViewport
 10
148.5
 20
210.0
 30
0.0
 40
297.0
 41
420.0
 68
1
 69
5
 12
148.5
 22
-210.0
 13
0.0
 23
0.0
 14
10.0
 24
10.0
 15
10.0
 25
10.0
 16
0.0
 26
0.0
 36
0.0
 17
0.0
 27
0.0
 37
0.0
 42
50.0
 43
0.0
 44
0.0
 45
420.0
 50
0.0
 51
0.0
 72
100
 90
0
  1

281
0
 71
0
 74
0
110
0.0
120
0.0
130
0.0
111
1.0
121
0.0
131
0.0
112
0.0
122
1.0
132
0.0
 79
0
146
0.0
  0
ENDBLK
  5
113
330
111
100
AcDbEntity
  8
0
100
AcDbBlockEnd
  0
BLOCK
  5
118
330
117
100
AcDbEntity
  8
0
100
AcDbBlockBegin
  2
*Paper_Space1
 70
0
 10
0.0
 20
0.0
 30
0.0
  3
*Paper_Space1
  1

  0
VIEWPORT
  5
11B
330
117
100
AcDbEntity
 67
1
  8
VIEWPORTS
100
AcDbViewport
 10
148.5
 20
210.0
 30
0.0
 40
326.70000000000005
 41
462.00000000000006
 68
1
 69
1
 12
148.5
 22
210.0
 13
0.0
 23
0.0
 14
10.0
 24
10.0
 15
10.0
 25
10.0
 16
0.0
 26
0.0
 36
0.0
 17
0.0
 27
0.0
 37
0.0
 42
50.0
 43
0.0
 44
0.0
 45
462.00000000000006
 50
0.0
 51
0.0
 72
100
 90
557088
  1

281
0
 71
0
 74
0
110
0.0
120
0.0
130
0.0
111
1.0
121
0.0
131
0.0
112
0.0
122
1.0
132
0.0
 79
0
146
0.0
  0
VIEWPORT
  5
11C
330
117
100
AcDbEntity
 67
1
  8
VIEWPORTS
100
AcDbViewport
 10
148.5
 20
210.0
 30
0.0
 40
297.0
 41
420.0
 68
1
 69
7
 12
445.5
 22
-210.0
 13
0.0
 23
0.0
 14
10.0
 24
10.0
 15
10.0
 25
10.0
 16
0.0
 26
0.0
 36
0.0
 17
0.0
 27
0.0
 37
0.0
 42
50.0
 43
0.0
 44
0.0
 45
420.0
 50
0.0
 51
0.0
 72
100
 90
0
  1

281
0
 71
0
 74
0
110
0.0
120
0.0
130
0.0
111
1.0
121
0.0
131
0.0
112
0.0
122
1.0
132
0.0
 79
0
146
0.0
  0
ENDBLK
  5
119
330
117
100
AcDbEntity
  8
0
100
AcDbBlockEnd
  0
BLOCK
  5
11E
330
11D
100
AcDbEntity
  8
0
100
AcDbBlockBegin
  2
*Paper_Space2
 70
0
 10
0.0
 20
0.0
 30
0.0
  3
*Paper_Space2
  1

  0
VIEWPORT
  5
121
330
11D
100
AcDbEntity
 67
1
  8
VIEWPORTS
100
AcDbViewport
 10
148.5
 20
210.0
 30
0.0
 40
326.70000000000005
 41
462.00000000000006
 68
1
 69
1
 12
148.5
 22
210.0
 13
0.0
 23
0.0
 14
10.0
 24
10.0
 15
10.0
 25
10.0
 16
0.0
 26
0.0
 36
0.0
 17
0.0
 27
0.0
 37
0.0
 42
50.0
 43
0.0
 44
0.0
 45
462.00000000000006
 50
0.0
 51
0.0
 72
100
 90
557088
  1

281
0
 71
0
 74
0
110
0.0
120
0.0
130
0.0
111
1.0
121
0.0
131
0.0
112
0.0
122
1.0
132
0.0
 79
0
146
0.0
  0
VIEWPORT
  5
122
330
11D
100
AcDbEntity
 67
1
  8
VIEWPORTS
100
AcDbViewport
 10
148.5
 20
210.0
 30
0.0
 40
297.0
 41
420.0
 68
1
 69
9
 12
742.5
 22
-210.0
 13
0.0
 23
0.0
 14
10.0
 24
10.0
 15
10.0
 25
10.0
 16
0.0
 26
0.0
 36
0.0
 17
0.0
 27
0.0
 37
0.0
 42
50.0
 43
0.0
 44
0.0
 45
420.0
 50
0.0
 51
0.0
 72
100
 90
0
  1

281
0
 71
0
 74
0
110
0.0
120
0.0
130
0.0
111
1.0
121
0.0
131
0.0
112
0.0
122
1.0
132
0.0
 79
0
146
0.0
  0
ENDBLK
  5
11F
330
11D
100
AcDbEntity
  8
0
100
AcDbBlockEnd
  0
BLOCK
  5
124
330
123
100
AcDbEntity
  8
0
100
AcDbBlockBegin
  2
*Paper_Space3
 70
0
 10
0.0
 20
0.0
 30
0.0
  3
*Paper_Space3
  1

  0
VIEWPORT
  5
127
330
123
100
AcDbEntity
 67
1
  8
VIEWPORTS
100
AcDbViewport
 10
148.5
 20
210.0
 30
0.0
 40
326.70000000000005
 41
462.00000000000006
 68
1
 69
1
 12
148.5
 22
210.0
 13
0.0
 23
0.0
 14
10.0
 24
10.0
 15
10.0
 25
10.0
 16
0.0
 26
0.0
 36
0.0
 17
0.0
 27
0.0
 37
0.0
 42
50.0
 43
0.0
 44
0.0
 45
462.00000000000006
 50
0.0
 51
0.0
 72
100
 90
557088
  1

281
0
 71
0
 74
0
110
0.0
120
0.0
130
0.0
111
1.0
121
0.0
131
0.0
112
0.0
122
1.0
132
0.0
 79
0
146
0.0
  0
VIEWPORT
  5
128
330
123
100
AcDbEntity
 67
1
  8
VIEWPORTS
100
AcDbViewport
 10
148.5
 20
210.0
 30
0.0
 40
297.0
 41
420.0
 68
1
 69
11
 12
1039.5
 22
-210.0
 13
0.0
 23
0.0
 14
10.0
 24
10.0
 15
10.0
 25
10.0
 16
0.0
 26
0.0
 36
0.0
 17
0.0
 27
0.0
 37
0.0
 42
50.0
 43
0.0
 44
0.0
 45
420.0
 50
0.0
 51
0.0
 72
100
 90
0
  1

281
0
 71
0
 74
0
110
0.0
120
0.0
130
0.0
111
1.0
121
0.0
131
0.0
112
0.0
122
1.0
132
0.0
 79
0
146
0.0
  0
ENDBLK
  5
125
330
123
100
AcDbEntity
  8
0
100
AcDbBlockEnd
  0
BLOCK
  5
12A
330
129
100
AcDbEntity
  8
0
100
AcDbBlockBegin
  2
*Paper_Space4
 70
0
 10
0.0
 20
0.0
 30
0.0
  3
*Paper_Space4
  1

  0
VIEWPORT
  5
12D
330
129
100
AcDbEntity
 67
1
  8
VIEWPORTS
100
AcDbViewport
 10
148.5
 20
210.0
 30
0.0
 40
326.70000000000005
 41
462.00000000000006
 68
1
 69
1
 12
148.5
 22
210.0
 13
0.0
 23
0.0
 14
10.0
 24
10.0
 15
10.0
 25
10.0
 16
0.0
 26
0.0
 36
0.0
 17
0.0
 27
0.0
 37
0.0
 42
50.0
 43
0.0
 44
0.0
 45
462.00000000000006
 50
0.0
 51
0.0
 72
100
 90
557088
  1

281
0
 71
0
 74
0
110
0.0
120
0.0
130
0.0
111
1.0
121
0.0
131
0.0
112
0.0
122
1.0
132
0.0
 79
0
146
0.0
  0
VIEWPORT
  5
12E
330
129
100
AcDbEntity
 67
1
  8
VIEWPORTS
100
AcDbViewport
 10
148.5
 20
210.0
 30
0.0
 40
297.0
 41
420.0
 68
1
 69
13
 12
1336.5
 22
-210.0
 13
0.0
 23
0.0
 14
10.0
 24
10.0
 15
10.0
 25
10.0
 16
0.0
 26
0.0
 36
0.0
 17
0.0
 27
0.0
 37
0.0
 42
50.0
 43
0.0
 44
0.0
 45
420.0
 50
0.0
 51
0.0
 72
100
 90
0
  1

281
0
 71
0
 74
0
110
0.0
120
0.0
130
0.0
111
1.0
121
0.0
131
0.0
112
0.0
122
1.0
132
0.0
 79
0
146
0.0
  0
ENDBLK
  5
12B
330
129
100
AcDbEntity
  8
0
100
AcDbBlockEnd
  0
BLOCK
  5
130
330
12F
100
AcDbEntity
  8
0
100
AcDbBlockBegin
  2
*Paper_Space5
 70
0
 10
0.0
 20
0.0
 30
0.0
  3
*Paper_Space5
  1

  0
VIEWPORT
  5
133
330
12F
100
AcDbEntity
 67
1
  8
VIEWPORTS
100
AcDbViewport
 10
148.5
 20
210.0
 30
0.0
 40
326.70000000000005
 41
462.00000000000006
 68
1
 69
1
 12
148.5
 22
210.0
 13
0.0
 23
0.0
 14
10.0
 24
10.0
 15
10.0
 25
10.0
 16
0.0
 26
0.0
 36
0.0
 17
0.0
 27
0.0
 37
0.0
 42
50.0
 43
0.0
 44
0.0
 45
462.00000000000006
 50
0.0
 51
0.0
 72
100
 90
557088
  1

281
0
 71
0
 74
0
110
0.0
120
0.0
130
0.0
111
1.0
121
0.0
131
0.0
112
0.0
122
1.0
132
0.0
 79
0
146
0.0
  0
VIEWPORT
  5
134
330
12F
100
AcDbEntity
 67
1
  8
VIEWPORTS
100
AcDbViewport
 10
148.5
 20
210.0
 30
0.0
 40
297.0
 41
420.0
 68
1
 69
15
 12
148.5
 22
-630.0
 13
0.0
 23
0.0
 14
10.0
 24
10.0
 15
10.0
 25
10.0
 16
0.0
 26
0.0
 36
0.0
 17
0.0
 27
0.0
 37
0.0
 42
50.0
 43
0.0
 44
0.0
 45
420.0
 50
0.0
 51
0.0
 72
100
 90
0
  1

281
0
 71
0
 74
0
110
0.0
120
0.0
130
0.0
111
1.0
121
0.0
131
0.0
112
0.0
122
1.0
132
0.0
 79
0
146
0.0
  0
ENDBLK
  5
131
330
12F
100
AcDbEntity
  8
0
100
AcDbBlockEnd
  0
BLOCK
  5
136
330
135
100
AcDbEntity
  8
0
100
AcDbBlockBegin
  2
*Paper_Space6
 70
0
 10
0.0
 20
0.0
 30
0.0
  3
*Paper_Space6
  1

  0
VIEWPORT
  5
139
330
135
100
AcDbEntity
 67
1
  8
VIEWPORTS
100
AcDbViewport
 10
148.5
 20
210.0
 30
0.0
 40
326.70000000000005
 41
462.00000000000006
 68
1
 69
1
 12
148.5
 22
210.0
 13
0.0
 23
0.0
 14
10.0
 24
10.0
 15
10.0
 25
10.0
 16
0.0
 26
0.0
 36
0.0
 17
0.0
 27
0.0
 37
0.0
 42
50.0
 43
0.0
 44
0.0
 45
462.00000000000006
 50
0.0
 51
0.0
 72
100
 90
557088
  1

281
0
 71
0
 74
0
110
0.0
120
0.0
130
0.0
111
1.0
121
0.0
131
0.0
112
0.0
122
1.0
132
0.0
 79
0
146
0.0
  0
VIEWPORT
  5
13A
330
135
100
AcDbEntity
 67
1
  8
VIEWPORTS
100
AcDbViewport
 10
148.5
 20
210.0
 30
0.0
 40
297.0
 41
420.0
 68
1
 69
17
 12
445.5
 22
-630.0
 13
0.0
 23
0.0
 14
10.0
 24
10.0
 15
10.0
 25
10.0
 16
0.0
 26
0.0
 36
0.0
 17
0.0
 27
0.0
 37
0.0
 42
50.0
 43
0.0
 44
0.0
 45
420.0
 50
0.0
 51
0.0
 72
100
 90
0
  1

281
0
 71
0
 74
0
110
0.0
120
0.0
130
0.0
111
1.0
121
0.0
131
0.0
112
0.0
122
1.0
132
0.0
 79
0
146
0.0
  0
ENDBLK
  5
137
330
135
100
AcDbEntity
  8
0
100
AcDbBlockEnd
  0
BLOCK
  5
13C
330
13B
100
AcDbEntity
  8
0
100
AcDbBlockBegin
  2
*Paper_Space7
 70
0
 10
0.0
 20
0.0
 30
0.0
  3
*Paper_Space7
  1

  0
VIEWPORT
  5
13F
330
13B
100
AcDbEntity
 67
1
  8
VIEWPORTS
100
AcDbViewport
 10
148.5
 20
210.0
 30
0.0
 40
326.70000000000005
 41
462.00000000000006
 68
1
 69
1
 12
148.5
 22
210.0
 13
0.0
 23
0.0
 14
10.0
 24
10.0
 15
10.0
 25
10.0
 16
0.0
 26
0.0
 36
0.0
 17
0.0
 27
0.0
 37
0.0
 42
50.0
 43
0.0
 44
0.0
 45
462.00000000000006
 50
0.0
 51
0.0
 72
100
 90
557088
  1

281
0
 71
0
 74
0
110
0.0
120
0.0
130
0.0
111
1.0
121
0.0
131
0.0
112
0.0
122
1.0
132
0.0
 79
0
146
0.0
  0
VIEWPORT
  5
140
330
13B
100
AcDbEntity
 67
1
  8
VIEWPORTS
100
AcDbViewport
 10
148.5
 20
210.0
 30
0.0
 40
297.0
 41
420.0
 68
1
 69
19
 12
742.5
 22
-630.0
 13
0.0
 23
0.0
 14
10.0
 24
10.0
 15
10.0
 25
10.0
 16
0.0
 26
0.0
 36
0.0
 17
0.0
 27
0.0
 37
0.0
 42
50.0
 43
0.0
 44
0.0
 45
420.0
 50
0.0
 51
0.0
 72
100
 90
0
  1

281
0
 71
0
 74
0
110
0.0
120
0.0
130
0.0
111
1.0
121
0.0
131
0.0
112
0.0
122
1.0
132
0.0
 79
0
146
0.0
  0
ENDBLK
  5
13D
330
13B
100
AcDbEntity
  8
0
100
AcDbBlockEnd
  0
BLOCK
  5
142
330
141
100
AcDbEntity
  8
0
100
AcDbBlockBegin
  2
*Paper_Space8
 70
0
 10
0.0
 20
0.0
 30
0.0
  3
*Paper_Space8
  1

  0
VIEWPORT
  5
145
330
141
100
AcDbEntity
 67
1
  8
VIEWPORTS
100
AcDbViewport
 10
148.5
 20
210.0
 30
0.0
 40
326.70000000000005
 41
462.00000000000006
 68
1
 69
1
 12
148.5
 22
210.0
 13
0.0
 23
0.0
 14
10.0
 24
10.0
 15
10.0
 25
10.0
 16
0.0
 26
0.0
 36
0.0
 17
0.0
 27
0.0
 37
0.0
 42
50.0
 43
0.0
 44
0.0
 45
462.00000000000006
 50
0.0
 51
0.0
 72
100
 90
557088
  1

281
0
 71
0
 74
0
110
0.0
120
0.0
130
0.0
111
1.0
121
0.0
131
0.0
112
0.0
122
1.0
132
0.0
 79
0
146
0.0
  0
VIEWPORT
  5
146
330
141
100
AcDbEntity
 67
1
  8
VIEWPORTS
100
AcDbViewport
 10
148.5
 20
210.0
 30
0.0
 40
297.0
 41
420.0
 68
1
 69
21
 12
1039.5
 22
-630.0
 13
0.0
 23
0.0
 14
10.0
 24
10.0
 15
10.0
 25
10.0
 16
0.0
 26
0.0
 36
0.0
 17
0.0
 27
0.0
 37
0.0
 42
50.0
 43
0.0
 44
0.0
 45
420.0
 50
0.0
 51
0.0
 72
100
 90
0
  1

281
0
 71
0
 74
0
110
0.0
120
0.0
130
0.0
111
1.0
121
0.0
131
0.0
112
0.0
122
1.0
132
0.0
 79
0
146
0.0
  0
ENDBLK
  5
143
330
141
100
AcDbEntity
  8
0
100
AcDbBlockEnd
  0
BLOCK
  5
148
330
147
100
AcDbEntity
  8
0
100
AcDbBlockBegin
  2
*Paper_Space9
 70
0
 10
0.0
 20
0.0
 30
0.0
  3
*Paper_Space9
  1

  0
VIEWPORT
  5
14B
330
147
100
AcDbEntity
 67
1
  8
VIEWPORTS
100
AcDbViewport
 10
148.5
 20
210.0
 30
0.0
 40
326.70000000000005
 41
462.00000000000006
 68
1
 69
1
 12
148.5
 22
210.0
 13
0.0
 23
0.0
 14
10.0
 24
10.0
 15
10.0
 25
10.0
 16
0.0
 26
0.0
 36
0.0
 17
0.0
 27
0.0
 37
0.0
 42
50.0
 43
0.0
 44
0.0
 45
462.00000000000006
 50
0.0
 51
0.0
 72
100
 90
557088
  1

281
0
 71
0
 74
0
110
0.0
120
0.0
130
0.0
111
1.0
121
0.0
131
0.0
112
0.0
122
1.0
132
0.0
 79
0
146
0.0
  0
VIEWPORT
  5
14C
330
147
100
AcDbEntity
 67
1
  8
VIEWPORTS
100
AcDbViewport
 10
148.5
 20
210.0
 30
0.0
 40
297.0
 41
420.0
 68
1
 69
23
 12
1336.5
 22
-630.0
 13
0.0
 23
0.0
 14
10.0
 24
10.0
 15
10.0
 25
10.0
 16
0.0
 26
0.0
 36
0.0
 17
0.0
 27
0.0
 37
0.0
 42
50.0
 43
0.0
 44
0.0
 45
420.0
 50
0.0
 51
0.0
 72
100
 90
0
  1

281
0
 71
0
 74
0
110
0.0
120
0.0
130
0.0
111
1.0
121
0.0
131
0.0
112
0.0
122
1.0
132
0.0
 79
0
146
0.0
  0
ENDBLK
  5
149
330
147
100
AcDbEntity
  8
0
100
AcDbBlockEnd
  0
BLOCK
  5
14E
330
14D
100
AcDbEntity
  8
0
100
AcDbBlockBegin
  2
*Paper_Space10
 70
0
 10
0.0
 20
0.0
 30
0.0
  3
*Paper_Space10
  1

  0
VIEWPORT
  5
151
330
14D
100
AcDbEntity
 67
1
  8
VIEWPORTS
100
AcDbViewport
 10
148.5
 20
210.0
 30
0.0
 40
326.70000000000005
 41
462.00000000000006
 68
1
 69
1
 12
148.5
 22
210.0
 13
0.0
 23
0.0
 14
10.0
 24
10.0
 15
10.0
 25
10.0
 16
0.0
 26
0.0
 36
0.0
 17
0.0
 27
0.0
 37
0.0
 42
50.0
 43
0.0
 44
0.0
 45
462.00000000000006
 50
0.0
 51
0.0
 72
100
 90
557088
  1

281
0
 71
0
 74
0
110
0.0
120
0.0
130
0.0
111
1.0
121
0.0
131
0.0
112
0.0
122
1.0
132
0.0
 79
0
146
0.0
  0
VIEWPORT
  5
152
330
14D
100
AcDbEntity
 67
1
  8
VIEWPORTS
100
AcDbViewport
 10
148.5
 20
210.0
 30
0.0
 40
297.0
 41
420.0
 68
1
 69
25
 12
148.5
 22
-1050.0
 13
0.0
 23
0.0
 14
10.0
 24
10.0
 15
10.0
 25
10.0
 16
0.0
 26
0.0
 36
0.0
 17
0.0
 27
0.0
 37
0.0
 42
50.0
 43
0.0
 44
0.0
 45
420.0
 50
0.0
 51
0.0
 72
100
 90
0
  1

281
0
 71
0
 74
0
110
0.0
120
0.0
130
0.0
111
1.0
121
0.0
131
0.0
112
0.0
122
1.0
132
0.0
 79
0
146
0.0
  0
ENDBLK
  5
14F
330
14D
100
AcDbEntity
  8
0
100
AcDbBlockEnd
  0
BLOCK
  5
154
330
153
100
AcDbEntity
  8
0
100
AcDbBlockBegin
  2
*Paper_Space11
 70
0
 10
0.0
 20
0.0
 30
0.0
  3
*Paper_Space11
  1

  0
VIEWPORT
  5
157
330
153
100
AcDbEntity
 67
1
  8
VIEWPORTS
100
AcDbViewport
 10
148.5
 20
210.0
 30
0.0
 40
326.70000000000005
 41
462.00000000000006
 68
1
 69
1
 12
148.5
 22
210.0
 13
0.0
 23
0.0
 14
10.0
 24
10.0
 15
10.0
 25
10.0
 16
0.0
 26
0.0
 36
0.0
 17
0.0
 27
0.0
 37
0.0
 42
50.0
 43
0.0
 44
0.0
 45
462.00000000000006
 50
0.0
 51
0.0
 72
100
 90
557088
  1

281
0
 71
0
 74
0
110
0.0
120
0.0
130
0.0
111
1.0
121
0.0
131
0.0
112
0.0
122
1.0
132
0.0
 79
0
146
0.0
  0
VIEWPORT
  5
158
330
153
100
AcDbEntity
 67
1
  8
VIEWPORTS
100
AcDbViewport
 10
148.5
 20
210.0
 30
0.0
 40
297.0
 41
420.0
 68
1
 69
27
 12
445.5
 22
-1050.0
 13
0.0
 23
0.0
 14
10.0
 24
10.0
 15
10.0
 25
10.0
 16
0.0
 26
0.0
 36
0.0
 17
0.0
 27
0.0
 37
0.0
 42
50.0
 43
0.0
 44
0.0
 45
420.0
 50
0.0
 51
0.0
 72
100
 90
0
  1

281
0
 71
0
 74
0
110
0.0
120
0.0
130
0.0
111
1.0
121
0.0
131
0.0
112
0.0
122
1.0
132
0.0
 79
0
146
0.0
  0
ENDBLK
  5
155
330
153
100
AcDbEntity
  8
0
100
AcDbBlockEnd
  0
BLOCK
  5
15A
330
159
100
AcDbEntity
  8
0
100
AcDbBlockBegin
  2
*Paper_Space12
 70
0
 10
0.0
 20
0.0
 30
0.0
  3
*Paper_Space12
  1

  0
VIEWPORT
  5
15D
330
159
100
AcDbEntity
 67
1
  8
VIEWPORTS
100
AcDbViewport
 10
148.5
 20
210.0
 30
0.0
 40
326.70000000000005
 41
462.00000000000006
 68
1
 69
1
 12
148.5
 22
210.0
 13
0.0
 23
0.0
 14
10.0
 24
10.0
 15
10.0
 25
10.0
 16
0.0
 26
0.0
 36
0.0
 17
0.0
 27
0.0
 37
0.0
 42
50.0
 43
0.0
 44
0.0
 45
462.00000000000006
 50
0.0
 51
0.0
 72
100
 90
557088
  1

281
0
 71
0
 74
0
110
0.0
120
0.0
130
0.0
111
1.0
121
0.0
131
0.0
112
0.0
122
1.0
132
0.0
 79
0
146
0.0
  0
VIEWPORT
  5
15E
330
159
100
AcDbEntity
 67
1
  8
VIEWPORTS
100
AcDbViewport
 10
148.5
 20
210.0
 30
0.0
 40
297.0
 41
420.0
 68
1
 69
29
 12
742.5
 22
-1050.0
 13
0.0
 23
0.0
 14
10.0
 24
10.0
 15
10.0
 25
10.0
 16
0.0
 26
0.0
 36
0.0
 17
0.0
 27
0.0
 37
0.0
 42
50.0
 43
0.0
 44
0.0
 45
420.0
 50
0.0
 51
0.0
 72
100
 90
0
  1

281
0
 71
0
 74
0
110
0.0
120
0.0
130
0.0
111
1.0
121
0.0
131
0.0
112
0.0
122
1.0
132
0.0
 79
0
146
0.0
  0
ENDBLK
  5
15B
330
159
100
AcDbEntity
  8
0
100
AcDbBlockEnd
  0
BLOCK
  5
160
330
15F
100
AcDbEntity
  8
0
100
AcDbBlockBegin
  2
*Paper_Space13
 70
0
 10
0.0
 20
0.0
 30
0.0
  3
*Paper_Space13
  1

  0
VIEWPORT
  5
163
330
15F
100
AcDbEntity
 67
1
  8
VIEWPORTS
100
AcDbViewport
 10
148.5
 20
210.0
 30
0.0
 40
326.70000000000005
 41
462.00000000000006
 68
1
 69
1
 12
148.5
 22
210.0
 13
0.0
 23
0.0
 14
10.0
 24
10.0
 15
10.0
 25
10.0
 16
0.0
 26
0.0
 36
0.0
 17
0.0
 27
0.0
 37
0.0
 42
50.0
 43
0.0
 44
0.0
 45
462.00000000000006
 50
0.0
 51
0.0
 72
100
 90
557088
  1

281
0
 71
0
 74
0
110
0.0
120
0.0
130
0.0
111
1.0
121
0.0
131
0.0
112
0.0
122
1.0
132
0.0
 79
0
146
0.0
  0
VIEWPORT
  5
164
330
15F
100
AcDbEntity
 67
1
  8
VIEWPORTS
100
AcDbViewport
 10
148.5
 20
210.0
 30
0.0
 40
297.0
 41
420.0
 68
1
 69
31
 12
1039.5
 22
-1050.0
 13
0.0
 23
0.0
 14
10.0
 24
10.0
 15
10.0
 25
10.0
 16
0.0
 26
0.0
 36
0.0
 17
0.0
 27
0.0
 37
0.0
 42
50.0
 43
0.0
 44
0.0
 45
420.0
 50
0.0
 51
0.0
 72
100
 90
0
  1

281
0
 71
0
 74
0
110
0.0
120
0.0
130
0.0
111
1.0
121
0.0
131
0.0
112
0.0
122
1.0
132
0.0
 79
0
146
0.0
  0
ENDBLK
  5
161
330
15F
100
AcDbEntity
  8
0
100
AcDbBlockEnd
  0
BLOCK
  5
166
330
165
100
AcDbEntity
  8
0
100
AcDbBlockBegin
  2
*Paper_Space14
 70
0
 10
0.0
 20
0.0
 30
0.0
  3
*Paper_Space14
  1

  0
VIEWPORT
  5
169
330
165
100
AcDbEntity
 67
1
  8
VIEWPORTS
100
AcDbViewport
 10
148.5
 20
210.0
 30
0.0
 40
326.70000000000005
 41
462.00000000000006
 68
1
 69
1
 12
148.5
 22
210.0
 13
0.0
 23
0.0
 14
10.0
 24
10.0
 15
10.0
 25
10.0
 16
0.0
 26
0.0
 36
0.0
 17
0.0
 27
0.0
 37
0.0
 42
50.0
 43
0.0
 44
0.0
 45
462.00000000000006
 50
0.0
 51
0.0
 72
100
 90
557088
  1

281
0
 71
0
 74
0
110
0.0
120
0.0
130
0.0
111
1.0
121
0.0
131
0.0
112
0.0
122
1.0
132
0.0
 79
0
146
0.0
  0
VIEWPORT
  5
16A
330
165
100
AcDbEntity
 67
1
  8
VIEWPORTS
100
AcDbViewport
 10
148.5
 20
210.0
 30
0.0
 40
297.0
 41
420.0
 68
1
 69
33
 12
1336.5
 22
-1050.0
 13
0.0
 23
0.0
 14
10.0
 24
10.0
 15
10.0
 25
10.0
 16
0.0
 26
0.0
 36
0.0
 17
0.0
 27
0.0
 37
0.0
 42
50.0
 43
0.0
 44
0.0
 45
420.0
 50
0.0
 51
0.0
 72
100
 90
0
  1

281
0
 71
0
 74
0
110
0.0
120
0.0
130
0.0
111
1.0
121
0.0
131
0.0
112
0.0
122
1.0
132
0.0
 79
0
146
0.0
  0
ENDBLK
  5
167
330
165
100
AcDbEntity
  8
0
100
AcDbBlockEnd
  0
BLOCK
  5
16C
330
16B
100
AcDbEntity
  8
0
100
AcDbBlockBegin
  2
*Paper_Space15
 70
0
 10
0.0
 20
0.0
 30
0.0
  3
*Paper_Space15
  1

  0
VIEWPORT
  5
16F
330
16B
100
AcDbEntity
 67
1
  8
VIEWPORTS
100
AcDbViewport
 10
148.5
 20
210.0
 30
0.0
 40
326.70000000000005
 41
462.00000000000006
 68
1
 69
1
 12
148.5
 22
210.0
 13
0.0
 23
0.0
 14
10.0
 24
10.0
 15
10.0
 25
10.0
 16
0.0
 26
0.0
 36
0.0
 17
0.0
 27
0.0
 37
0.0
 42
50.0
 43
0.0
 44
0.0
 45
462.00000000000006
 50
0.0
 51
0.0
 72
100
 90
557088
  1

281
0
 71
0
 74
0
110
0.0
120
0.0
130
0.0
111
1.0
121
0.0
131
0.0
112
0.0
122
1.0
132
0.0
 79
0
146
0.0
  0
VIEWPORT
  5
170
330
16B
100
AcDbEntity
 67
1
  8
VIEWPORTS
100
AcDbViewport
 10
148.5
 20
210.0
 30
0.0
 40
297.0
 41
420.0
 68
1
 69
35
 12
148.5
 22
-1470.0
 13
0.0
 23
0.0
 14
10.0
 24
10.0
 15
10.0
 25
10.0
 16
0.0
 26
0.0
 36
0.0
 17
0.0
 27
0.0
 37
0.0
 42
50.0
 43
0.0
 44
0.0
 45
420.0
 50
0.0
 51
0.0
 72
100
 90
0
  1

281
0
 71
0
 74
0
110
0.0
120
0.0
130
0.0
111
1.0
121
0.0
131
0.0
112
0.0
122
1.0
132
0.0
 79
0
146
0.0
  0
ENDBLK
  5
16D
330
16B
100
AcDbEntity
  8
0
100
AcDbBlockEnd
  0
BLOCK
  5
172
330
171
100
AcDbEntity
  8
0
100
AcDbBlockBegin
  2
*Paper_Space16
 70
0
 10
0.0
 20
0.0
 30
0.0
  3
*Paper_Space16
  1

  0
VIEWPORT
  5
175
330
171
100
AcDbEntity
 67
1
  8
VIEWPORTS
100
AcDbViewport
 10
148.5
 20
210.0
 30
0.0
 40
326.70000000000005
 41
462.00000000000006
 68
1
 69
1
 12
148.5
 22
210.0
 13
0.0
 23
0.0
 14
10.0
 24
10.0
 15
10.0
 25
10.0
 16
0.0
 26
0.0
 36
0.0
 17
0.0
 27
0.0
 37
0.0
 42
50.0
 43
0.0
 44
0.0
 45
462.00000000000006
 50
0.0
 51
0.0
 72
100
 90
557088
  1

281
0
 71
0
 74
0
110
0.0
120
0.0
130
0.0
111
1.0
121
0.0
131
0.0
112
0.0
122
1.0
132
0.0
 79
0
146
0.0
  0
VIEWPORT
  5
176
330
171
100
AcDbEntity
 67
1
  8
VIEWPORTS
100
AcDbViewport
 10
148.5
 20
210.0
 30
0.0
 40
297.0
 41
420.0
 68
1
 69
37
 12
445.5
 22
-1470.0
 13
0.0
 23
0.0
 14
10.0
 24
10.0
 15
10.0
 25
10.0
 16
0.0
 26
0.0
 36
0.0
 17
0.0
 27
0.0
 37
0.0
 42
50.0
 43
0.0
 44
0.0
 45
420.0
 50
0.0
 51
0.0
 72
100
 90
0
  1

281
0
 71
0
 74
0
110
0.0
120
0.0
130
0.0
111
1.0
121
0.0
131
0.0
112
0.0
122
1.0
132
0.0
 79
0
146
0.0
  0
ENDBLK
  5
173
330
171
100
AcDbEntity
  8
0
100
AcDbBlockEnd
  0
BLOCK
  5
178
330
177
100
AcDbEntity
  8
0
100
AcDbBlockBegin
  2
*Paper_Space17
 70
0
 10
0.0
 20
0.0
 30
0.0
  3
*Paper_Space17
  1

  0
VIEWPORT
  5
17B
330
177
100
AcDbEntity
 67
1
  8
VIEWPORTS
100
AcDbViewport
 10
148.5
 20
210.0
 30
0.0
 40
326.70000000000005
 41
462.00000000000006
 68
1
 69
1
 12
148.5
 22
210.0
 13
0.0
 23
0.0
 14
10.0
 24
10.0
 15
10.0
 25
10.0
 16
0.0
 26
0.0
 36
0.0
 17
0.0
 27
0.0
 37
0.0
 42
50.0
 43
0.0
 44
0.0
 45
462.00000000000006
 50
0.0
 51
0.0
 72
100
 90
557088
  1

281
0
 71
0
 74
0
110
0.0
120
0.0
130
0.0
111
1.0
121
0.0
131
0.0
112
0.0
122
1.0
132
0.0
 79
0
146
0.0
  0
VIEWPORT
  5
17C
330
177
100
AcDbEntity
 67
1
  8
VIEWPORTS
100
AcDbViewport
 10
148.5
 20
210.0
 30
0.0
 40
297.0
 41
420.0
 68
1
 69
39
 12
742.5
 22
-1470.0
 13
0.0
 23
0.0
 14
10.0
 24
10.0
 15
10.0
 25
10.0
 16
0.0
 26
0.0
 36
0.0
 17
0.0
 27
0.0
 37
0.0
 42
50.0
 43
0.0
 44
0.0
 45
420.0
 50
0.0
 51
0.0
 72
100
 90
0
  1

281
0
 71
0
 74
0
110
0.0
120
0.0
130
0.0
111
1.0
121
0.0
131
0.0
112
0.0
122
1.0
132
0.0
 79
0
146
0.0
  0
ENDBLK
  5
179
330
177
100
AcDbEntity
  8
0
100
AcDbBlockEnd
  0
BLOCK
  5
17E
330
17D
100
AcDbEntity
  8
0
100
AcDbBlockBegin
  2
*Paper_Space18
 70
0
 10
0.0
 20
0.0
 30
0.0
  3
*Paper_Space18
  1

  0
VIEWPORT
  5
181
330
17D
100
AcDbEntity
 67
1
  8
VIEWPORTS
100
AcDbViewport
 10
148.5
 20
210.0
 30
0.0
 40
326.70000000000005
 41
462.00000000000006
 68
1
 69
1
 12
148.5
 22
210.0
 13
0.0
 23
0.0
 14
10.0
 24
10.0
 15
10.0
 25
10.0
 16
0.0
 26
0.0
 36
0.0
 17
0.0
 27
0.0
 37
0.0
 42
50.0
 43
0.0
 44
0.0
 45
462.00000000000006
 50
0.0
 51
0.0
 72
100
 90
557088
  1

281
0
 71
0
 74
0
110
0.0
120
0.0
130
0.0
111
1.0
121
0.0
131
0.0
112
0.0
122
1.0
132
0.0
 79
0
146
0.0
  0
VIEWPORT
  5
182
330
17D
100
AcDbEntity
 67
1
  8
VIEWPORTS
100
AcDbViewport
 10
148.5
 20
210.0
 30
0.0
 40
297.0
 41
420.0
 68
1
 69
41
 12
1039.5
 22
-1470.0
 13
0.0
 23
0.0
 14
10.0
 24
10.0
 15
10.0
 25
10.0
 16
0.0
 26
0.0
 36
0.0
 17
0.0
 27
0.0
 37
0.0
 42
50.0
 43
0.0
 44
0.0
 45
420.0
 50
0.0
 51
0.0
 72
100
 90
0
  1

281
0
 71
0
 74
0
110
0.0
120
0.0
130
0.0
111
1.0
121
0.0
131
0.0
112
0.0
122
1.0
132
0.0
 79
0
146
0.0
  0
ENDBLK
  5
17F
330
17D
100
AcDbEntity
  8
0
100
AcDbBlockEnd
  0
BLOCK
  5
184
330
183
100
AcDbEntity
  8
0
100
AcDbBlockBegin
  2
*Paper_Space19
 70
0
 10
0.0
 20
0.0
 30
0.0
  3
*Paper_Space19
  1

  0
VIEWPORT
  5
187
330
183
100
AcDbEntity
 67
1
  8
VIEWPORTS
100
AcDbViewport
 10
148.5
 20
210.0
 30
0.0
 40
326.70000000000005
 41
462.00000000000006
 68
1
 69
1
 12
148.5
 22
210.0
 13
0.0
 23
0.0
 14
10.0
 24
10.0
 15
10.0
 25
10.0
 16
0.0
 26
0.0
 36
0.0
 17
0.0
 27
0.0
 37
0.0
 42
50.0
 43
0.0
 44
0.0
 45
462.00000000000006
 50
0.0
 51
0.0
 72
100
 90
557088
  1

281
0
 71
0
 74
0
110
0.0
120
0.0
130
0.0
111
1.0
121
0.0
131
0.0
112
0.0
122
1.0
132
0.0
 79
0
146
0.0
  0
VIEWPORT
  5
188
330
183
100
AcDbEntity
 67
1
  8
VIEWPORTS
100
AcDbViewport
 10
148.5
 20
210.0
 30
0.0
 40
297.0
 41
420.0
 68
1
 69
43
 12
1336.5
 22
-1470.0
 13
0.0
 23
0.0
 14
10.0
 24
10.0
 15
10.0
 25
10.0
 16
0.0
 26
0.0
 36
0.0
 17
0.0
 27
0.0
 37
0.0
 42
50.0
 43
0.0
 44
0.0
 45
420.0
 50
0.0
 51
0.0
 72
100
 90
0
  1

281
0
 71
0
 74
0
110
0.0
120
0.0
130
0.0
111
1.0
121
0.0
131
0.0
112
0.0
122
1.0
132
0.0
 79
0
146
0.0
  0
ENDBLK
  5
185
330
183
100
AcDbEntity
  8
0
100
AcDbBlockEnd
  0
BLOCK
  5
18A
330
189
100
AcDbEntity
  8
0
100
AcDbBlockBegin
  2
*Paper_Space20
 70
0
 10
0.0
 20
0.0
 30
0.0
  3
*Paper_Space20
  1

  0
VIEWPORT
  5
18D
330
189
100
AcDbEntity
 67
1
  8
VIEWPORTS
100
AcDbViewport
 10
148.5
 20
210.0
 30
0.0
 40
326.70000000000005
 41
462.00000000000006
 68
1
 69
1
 12
148.5
 22
210.0
 13
0.0
 23
0.0
 14
10.0
 24
10.0
 15
10.0
 25
10.0
 16
0.0
 26
0.0
 36
0.0
 17
0.0
 27
0.0
 37
0.0
 42
50.0
 43
0.0
 44
0.0
 45
462.00000000000006
 50
0.0
 51
0.0
 72
100
 90
557088
  1

281
0
 71
0
 74
0
110
0.0
120
0.0
130
0.0
111
1.0
121
0.0
131
0.0
112
0.0
122
1.0
132
0.0
 79
0
146
0.0
  0
VIEWPORT
  5
18E
330
189
100
AcDbEntity
 67
1
  8
VIEWPORTS
100
AcDbViewport
 10
148.5
 20
210.0
 30
0.0
 40
297.0
 41
420.0
 68
1
 69
45
 12
148.5
 22
-1890.0
 13
0.0
 23
0.0
 14
10.0
 24
10.0
 15
10.0
 25
10.0
 16
0.0
 26
0.0
 36
0.0
 17
0.0
 27
0.0
 37
0.0
 42
50.0
 43
0.0
 44
0.0
 45
420.0
 50
0.0
 51
0.0
 72
100
 90
0
  1

281
0
 71
0
 74
0
110
0.0
120
0.0
130
0.0
111
1.0
121
0.0
131
0.0
112
0.0
122
1.0
132
0.0
 79
0
146
0.0
  0
ENDBLK
  5
18B
330
189
100
AcDbEntity
  8
0
100
AcDbBlockEnd
  0
BLOCK
  5
190
330
18F
100
AcDbEntity
  8
0
100
AcDbBlockBegin
  2
*Paper_Space21
 70
0
 10
0.0
 20
0.0
 30
0.0
  3
*Paper_Space21
  1

  0
VIEWPORT
  5
193
330
18F
100
AcDbEntity
 67
1
  8
VIEWPORTS
100
AcDbViewport
 10
148.5
 20
210.0
 30
0.0
 40
326.70000000000005
 41
462.00000000000006
 68
1
 69
1
 12
148.5
 22
210.0
 13
0.0
 23
0.0
 14
10.0
 24
10.0
 15
10.0
 25
10.0
 16
0.0
 26
0.0
 36
0.0
 17
0.0
 27
0.0
 37
0.0
 42
50.0
 43
0.0
 44
0.0
 45
462.00000000000006
 50
0.0
 51
0.0
 72
100
 90
557088
  1

281
0
 71
0
 74
0
110
0.0
120
0.0
130
0.0
111
1.0
121
0.0
131
0.0
112
0.0
122
1.0
132
0.0
 79
0
146
0.0
  0
VIEWPORT
  5
194
330
18F
100
AcDbEntity
 67
1
  8
VIEWPORTS
100
AcDbViewport
 10
148.5
 20
210.0
 30
0.0
 40
297.0
 41
420.0
 68
1
 69
47
 12
445.5
 22
-1890.0
 13
0.0
 23
0.0
 14
10.0
 24
10.0
 15
10.0
 25
10.0
 16
0.0
 26
0.0
 36
0.0
 17
0.0
 27
0.0
 37
0.0
 42
50.0
 43
0.0
 44
0.0
 45
420.0
 50
0.0
 51
0.0
 72
100
 90
0
  1

281
0
 71
0
 74
0
110
0.0
120
0.0
130
0.0
111
1.0
121
0.0
131
0.0
112
0.0
122
1.0
132
0.0
 79
0
146
0.0
  0
ENDBLK
  5
191
330
18F
100
AcDbEntity
  8
0
100
AcDbBlockEnd
  0
BLOCK
  5
196
330
195
100
AcDbEntity
  8
0
100
AcDbBlockBegin
  2
*Paper_Space22
 70
0
 10
0.0
 20
0.0
 30
0.0
  3
*Paper_Space22
  1

  0
VIEWPORT
  5
199
330
195
100
AcDbEntity
 67
1
  8
VIEWPORTS
100
AcDbViewport
 10
148.5
 20
210.0
 30
0.0
 40
326.70000000000005
 41
462.00000000000006
 68
1
 69
1
 12
148.5
 22
210.0
 13
0.0
 23
0.0
 14
10.0
 24
10.0
 15
10.0
 25
10.0
 16
0.0
 26
0.0
 36
0.0
 17
0.0
 27
0.0
 37
0.0
 42
50.0
 43
0.0
 44
0.0
 45
462.00000000000006
 50
0.0
 51
0.0
 72
100
 90
557088
  1

281
0
 71
0
 74
0
110
0.0
120
0.0
130
0.0
111
1.0
121
0.0
131
0.0
112
0.0
122
1.0
132
0.0
 79
0
146
0.0
  0
VIEWPORT
  5
19A
330
195
100
AcDbEntity
 67
1
  8
VIEWPORTS
100
AcDbViewport
 10
148.5
 20
210.0
 30
0.0
 40
297.0
 41
420.0
 68
1
 69
49
 12
742.5
 22
-1890.0
 13
0.0
 23
0.0
 14
10.0
 24
10.0
 15
10.0
 25
10.0
 16
0.0
 26
0.0
 36
0.0
 17
0.0
 27
0.0
 37
0.0
 42
50.0
 43
0.0
 44
0.0
 45
420.0
 50
0.0
 51
0.0
 72
100
 90
0
  1

281
0
 71
0
 74
0
110
0.0
120
0.0
130
0.0
111
1.0
121
0.0
131
0.0
112
0.0
122
1.0
132
0.0
 79
0
146
0.0
  0
ENDBLK
  5
197
330
195
100
AcDbEntity
  8
0
100
AcDbBlockEnd
  0
BLOCK
  5
19C
330
19B
100
AcDbEntity
  8
0
100
AcDbBlockBegin
  2
*Paper_Space23
 70
0
 10
0.0
 20
0.0
 30
0.0
  3
*Paper_Space23
  1

  0
VIEWPORT
  5
19F
330
19B
100
AcDbEntity
 67
1
  8
VIEWPORTS
100
AcDbViewport
 10
148.5
 20
210.0
 30
0.0
 40
326.70000000000005
 41
462.00000000000006
 68
1
 69
1
 12
148.5
 22
210.0
 13
0.0
 23
0.0
 14
10.0
 24
10.0
 15
10.0
 25
10.0
 16
0.0
 26
0.0
 36
0.0
 17
0.0
 27
0.0
 37
0.0
 42
50.0
 43
0.0
 44
0.0
 45
462.00000000000006
 50
0.0
 51
0.0
 72
100
 90
557088
  1

281
0
 71
0
 74
0
110
0.0
120
0.0
130
0.0
111
1.0
121
0.0
131
0.0
112
0.0
122
1.0
132
0.0
 79
0
146
0.0
  0
VIEWPORT
  5
1A0
330
19B
100
AcDbEntity
 67
1
  8
VIEWPORTS
100
AcDbViewport
 10
148.5
 20
210.0
 30
0.0
 40
297.0
 41
420.0
 68
1
 69
51
 12
1039.5
 22
-1890.0
 13
0.0
 23
0.0
 14
10.0
 24
10.0
 15
10.0
 25
10.0
 16
0.0
 26
0.0
 36
0.0
 17
0.0
 27
0.0
 37
0.0
 42
50.0
 43
0.0
 44
0.0
 45
420.0
 50
0.0
 51
0.0
 72
100
 90
0
  1

281
0
 71
0
 74
0
110
0.0
120
0.0
130
0.0
111
1.0
121
0.0
131
0.0
112
0.0
122
1.0
132
0.0
 79
0
146
0.0
  0
ENDBLK
  5
19D
330
19B
100
AcDbEntity
  8
0
100
AcDbBlockEnd
  0
BLOCK
  5
1A2
330
1A1
100
AcDbEntity
  8
0
100
AcDbBlockBegin
  2
*Paper_Space24
 70
0
 10
0.0
 20
0.0
 30
0.0
  3
*Paper_Space24
  1

  0
VIEWPORT
  5
1A5
330
1A1
100
AcDbEntity
 67
1
  8
VIEWPORTS
100
AcDbViewport
 10
148.5
 20
210.0
 30
0.0
 40
326.70000000000005
 41
462.00000000000006
 68
1
 69
1
 12
148.5
 22
210.0
 13
0.0
 23
0.0
 14
10.0
 24
10.0
 15
10.0
 25
10.0
 16
0.0
 26
0.0
 36
0.0
 17
0.0
 27
0.0
 37
0.0
 42
50.0
 43
0.0
 44
0.0
 45
462.00000000000006
 50
0.0
 51
0.0
 72
100
 90
557088
  1

281
0
 71
0
 74
0
110
0.0
120
0.0
130
0.0
111
1.0
121
0.0
131
0.0
112
0.0
122
1.0
132
0.0
 79
0
146
0.0
  0
VIEWPORT
  5
1A6
330
1A1
100
AcDbEntity
 67
1
  8
VIEWPORTS
100
AcDbViewport
 10
148.5
 20
210.0
 30
0.0
 40
297.0
 41
420.0
 68
1
 69
53
 12
1336.5
 22
-1890.0
 13
0.0
 23
0.0
 14
10.0
 24
10.0
 15
10.0
 25
10.0
 16
0.0
 26
0.0
 36
0.0
 17
0.0
 27
0.0
 37
0.0
 42
50.0
 43
0.0
 44
0.0
 45
420.0
 50
0.0
 51
0.0
 72
100
 90
0
  1

281
0
 71
0
 74
0
110
0.0
120
0.0
130
0.0
111
1.0
121
0.0
131
0.0
112
0.0
122
1.0
132
0.0
 79
0
146
0.0
  0
ENDBLK
  5
1A3
330
1A1
100
AcDbEntity
  8
0
100
AcDbBlockEnd
  0
ENDSEC
  0
SECTION
  2
ENTITIES
  0
LINE
  5
2D
330
17
100
AcDbEntity
  8
0
 62
9
100
AcDbLine
 10
0.0
 20
0.0
 30
0.0
 11
297.0
 21
0.0
 31
0.0
  0
LINE
  5
2E
330
17
100
AcDbEntity
  8
0
 62
9
100
AcDbLine
 10
0.0
 20
-420.0
 30
0.0
 11
297.0
 21
-420.0
 31
0.0
  0
LINE
  5
2F
330
17
100
AcDbEntity
  8
0
 62
9
100
AcDbLine
 10
0.0
 20
0.0
 30
0.0
 11
0.0
 21
-420.0
 31
0.0
  0
LINE
  5
30
330
17
100
AcDbEntity
  8
0
 62
9
100
AcDbLine
 10
297.0
 20
0.0
 30
0.0
 11
297.0
 21
-420.0
 31
0.0
  0
LINE
  5
31
330
17
100
AcDbEntity
  8
0
 62
9
100
AcDbLine
 10
123.5
 20
-185.0
 30
0.0
 11
173.5
 21
-185.0
 31
0.0
  0
LINE
  5
32
330
17
100
AcDbEntity
  8
0
 62
9
100
AcDbLine
 10
173.5
 20
-235.0
 30
0.0
 11
173.5
 21
-185.0
 31
0.0
  0
LINE
  5
33
330
17
100
AcDbEntity
  8
0
 62
9
100
AcDbLine
 10
123.5
 20
-185.0
 30
0.0
 11
123.5
 21
-235.0
 31
0.0
  0
LINE
  5
34
330
17
100
AcDbEntity
  8
0
 62
9
100
AcDbLine
 10
123.5
 20
-235.0
 30
0.0
 11
173.5
 21
-235.0
 31
0.0
  0
TEXT
  5
35
330
17
100
AcDbEntity
  8
TEXTLAYER
 62
1
100
AcDbText
 10
148.5
 20
-210.0
 30
0.0
 40
10.0
  1
1-1
 72
1
 11
148.5
 21
-210.0
 31
0.0
100
AcDbText
  0
LINE
  5
36
330
17
100
AcDbEntity
  8
0
 62
9
100
AcDbLine
 10
297.0
 20
0.0
 30
0.0
 11
594.0
 21
0.0
 31
0.0
  0
LINE
  5
37
330
17
100
AcDbEntity
  8
0
 62
9
100
AcDbLine
 10
297.0
 20
-420.0
 30
0.0
 11
594.0
 21
-420.0
 31
0.0
  0
LINE
  5
38
330
17
100
AcDbEntity
  8
0
 62
9
100
AcDbLine
 10
297.0
 20
0.0
 30
0.0
 11
297.0
 21
-420.0
 31
0.0
  0
LINE
  5
39
330
17
100
AcDbEntity
  8
0
 62
9
100
AcDbLine
 10
594.0
 20
0.0
 30
0.0
 11
594.0
 21
-420.0
 31
0.0
  0
LINE
  5
3A
330
17
100
AcDbEntity
  8
0
 62
9
100
AcDbLine
 10
420.5
 20
-185.0
 30
0.0
 11
470.5
 21
-185.0
 31
0.0
  0
LINE
  5
3B
330
17
100
AcDbEntity
  8
0
 62
9
100
AcDbLine
 10
470.5
 20
-235.0
 30
0.0
 11
470.5
 21
-185.0
 31
0.0
  0
LINE
  5
3C
330
17
100
AcDbEntity
  8
0
 62
9
100
AcDbLine
 10
420.5
 20
-185.0
 30
0.0
 11
420.5
 21
-235.0
 31
0.0
  0
LINE
  5
3D
330
17
100
AcDbEntity
  8
0
 62
9
100
AcDbLine
 10
420.5
 20
-235.0
 30
0.0
 11
470.5
 21
-235.0
 31
0.0
  0
TEXT
  5
3E
330
17
100
AcDbEntity
  8
TEXTLAYER
 62
1
100
AcDbText
 10
445.5
 20
-210.0
 30
0.0
 40
10.0
  1
1-2
 72
1
 11
445.5
 21
-210.0
 31
0.0
100
AcDbText
  0
LINE
  5
3F
330
17
100
AcDbEntity
  8
0
 62
9
100
AcDbLine
 10
594.0
 20
0.0
 30
0.0
 11
891.0
 21
0.0
 31
0.0
  0
LINE
  5
40
330
17
100
AcDbEntity
  8
0
 62
9
100
AcDbLine
 10
594.0
 20
-420.0
 30
0.0
 11
891.0
 21
-420.0
 31
0.0
  0
LINE
  5
41
330
17
100
AcDbEntity
  8
0
 62
9
100
AcDbLine
 10
594.0
 20
0.0
 30
0.0
 11
594.0
 21
-420.0
 31
0.0
  0
LINE
  5
42
330
17
100
AcDbEntity
  8
0
 62
9
100
AcDbLine
 10
891.0
 20
0.0
 30
0.0
 11
891.0
 21
-420.0
 31
0.0
  0
LINE
  5
43
330
17
100
AcDbEntity
  8
0
 62
9
100
AcDbLine
 10
717.5
 20
-185.0
 30
0.0
 11
767.5
 21
-185.0
 31
0.0
  0
LINE
  5
44
330
17
100
AcDbEntity
  8
0
 62
9
100
AcDbLine
 10
767.5
 20
-235.0
 30
0.0
 11
767.5
 21
-185.0
 31
0.0
  0
LINE
  5
45
330
17
100
AcDbEntity
  8
0
 62
9
100
AcDbLine
 10
717.5
 20
-185.0
 30
0.0
 11
717.5
 21
-235.0
 31
0.0
  0
LINE
  5
46
330
17
100
AcDbEntity
  8
0
 62
9
100
AcDbLine
 10
717.5
 20
-235.0
 30
0.0
 11
767.5
 21
-235.0
 31
0.0
  0
TEXT
  5
47
330
17
100
AcDbEntity
  8
TEXTLAYER
 62
1
100
AcDbText
 10
742.5
 20
-210.0
 30
0.0
 40
10.0
  1
1-3
 72
1
 11
742.5
 21
-210.0
 31
0.0
100
AcDbText
  0
LINE
  5
48
330
17
100
AcDbEntity
  8
0
 62
9
100
AcDbLine
 10
891.0
 20
0.0
 30
0.0
 11
1188.0
 21
0.0
 31
0.0
  0
LINE
  5
49
330
17
100
AcDbEntity
  8
0
 62
9
100
AcDbLine
 10
891.0
 20
-420.0
 30
0.0
 11
1188.0
 21
-420.0
 31
0.0
  0
LINE
  5
4A
330
17
100
AcDbEntity
  8
0
 62
9
100
AcDbLine
 10
891.0
 20
0.0
 30
0.0
 11
891.0
 21
-420.0
 31
0.0
  0
LINE
  5
4B
330
17
100
AcDbEntity
  8
0
 62
9
100
AcDbLine
 10
1188.0
 20
0.0
 30
0.0
 11
1188.0
 21
-420.0
 31
0.0
  0
LINE
  5
4C
330
17
100
AcDbEntity
  8
0
 62
9
100
AcDbLine
 10
1014.5
 20
-185.0
 30
0.0
 11
1064.5
 21
-185.0
 31
0.0
  0
LINE
  5
4D
330
17
100
AcDbEntity
  8
0
 62
9
100
AcDbLine
 10
1064.5
 20
-235.0
 30
0.0
 11
1064.5
 21
-185.0
 31
0.0
  0
LINE
  5
4E
330
17
100
AcDbEntity
  8
0
 62
9
100
AcDbLine
 10
1014.5
 20
-185.0
 30
0.0
 11
1014.5
 21
-235.0
 31
0.0
  0
LINE
  5
4F
330
17
100
AcDbEntity
  8
0
 62
9
100
AcDbLine
 10
1014.5
 20
-235.0
 30
0.0
 11
1064.5
 21
-235.0
 31
0.0
  0
TEXT
  5
50
330
17
100
AcDbEntity
  8
TEXTLAYER
 62
1
100
AcDbText
 10
1039.5
 20
-210.0
 30
0.0
 40
10.0
  1
1-4
 72
1
 11
1039.5
 21
-210.0
 31
0.0
100
AcDbText
  0
LINE
  5
51
330
17
100
AcDbEntity
  8
0
 62
9
100
AcDbLine
 10
1188.0
 20
0.0
 30
0.0
 11
1485.0
 21
0.0
 31
0.0
  0
LINE
  5
52
330
17
100
AcDbEntity
  8
0
 62
9
100
AcDbLine
 10
1188.0
 20
-420.0
 30
0.0
 11
1485.0
 21
-420.0
 31
0.0
  0
LINE
  5
53
330
17
100
AcDbEntity
  8
0
 62
9
100
AcDbLine
 10
1188.0
 20
0.0
 30
0.0
 11
1188.0
 21
-420.0
 31
0.0
  0
LINE
  5
54
330
17
100
AcDbEntity
  8
0
 62
9
100
AcDbLine
 10
1485.0
 20
0.0
 30
0.0
 11
1485.0
 21
-420.0
 31
0.0
  0
LINE
  5
55
330
17
100
AcDbEntity
  8
0
 62
9
100
AcDbLine
 10
1311.5
 20
-185.0
 30
0.0
 11
1361.5
 21
-185.0
 31
0.0
  0
LINE
  5
56
330
17
100
AcDbEntity
  8
0
 62
9
100
AcDbLine
 10
1361.5
 20
-235.0
 30
0.0
 11
1361.5
 21
-185.0
 31
0.0
  0
LINE
  5
57
330
17
100
AcDbEntity
  8
0
 62
9
100
AcDbLine
 10
1311.5
 20
-185.0
 30
0.0
 11
1311.5
 21
-235.0
 31
0.0
  0
LINE
  5
58
330
17
100
AcDbEntity
  8
0
 62
9
100
AcDbLine
 10
1311.5
 20
-235.0
 30
0.0
 11
1361.5
 21
-235.0
 31
0.0
  0
TEXT
  5
59
330
17
100
AcDbEntity
  8
TEXTLAYER
 62
1
100
AcDbText
 10
1336.5
 20
-210.0
 30
0.0
 40
10.0
  1
1-5
 72
1
 11
1336.5
 21
-210.0
 31
0.0
100
AcDbText
  0
LINE
  5
5A
330
17
100
AcDbEntity
  8
0
 62
9
100
AcDbLine
 10
0.0
 20
-420.0
 30
0.0
 11
297.0
 21
-420.0
 31
0.0
  0
LINE
  5
5B
330
17
100
AcDbEntity
  8
0
 62
9
100
AcDbLine
 10
0.0
 20
-840.0
 30
0.0
 11
297.0
 21
-840.0
 31
0.0
  0
LINE
  5
5C
330
17
100
AcDbEntity
  8
0
 62
9
100
AcDbLine
 10
0.0
 20
-420.0
 30
0.0
 11
0.0
 21
-840.0
 31
0.0
  0
LINE
  5
5D
330
17
100
AcDbEntity
  8
0
 62
9
100
AcDbLine
 10
297.0
 20
-420.0
 30
0.0
 11
297.0
 21
-840.0
 31
0.0
  0
LINE
  5
5E
330
17
100
AcDbEntity
  8
0
 62
9
100
AcDbLine
 10
123.5
 20
-605.0
 30
0.0
 11
173.5
 21
-605.0
 31
0.0
  0
LINE
  5
5F
330
17
100
AcDbEntity
  8
0
 62
9
100
AcDbLine
 10
173.5
 20
-655.0
 30
0.0
 11
173.5
 21
-605.0
 31
0.0
  0
LINE
  5
60
330
17
100
AcDbEntity
  8
0
 62
9
100
AcDbLine
 10
123.5
 20
-605.0
 30
0.0
 11
123.5
 21
-655.0
 31
0.0
  0
LINE
  5
61
330
17
100
AcDbEntity
  8
0
 62
9
100
AcDbLine
 10
123.5
 20
-655.0
 30
0.0
 11
173.5
 21
-655.0
 31
0.0
  0
TEXT
  5
62
330
17
100
AcDbEntity
  8
TEXTLAYER
 62
1
100
AcDbText
 10
148.5
 20
-630.0
 30
0.0
 40
10.0
  1
2-1
 72
1
 11
148.5
 21
-630.0
 31
0.0
100
AcDbText
  0
LINE
  5
63
330
17
100
AcDbEntity
  8
0
 62
9
100
AcDbLine
 10
297.0
 20
-420.0
 30
0.0
 11
594.0
 21
-420.0
 31
0.0
  0
LINE
  5
64
330
17
100
AcDbEntity
  8
0
 62
9
100
AcDbLine
 10
297.0
 20
-840.0
 30
0.0
 11
594.0
 21
-840.0
 31
0.0
  0
LINE
  5
65
330
17
100
AcDbEntity
  8
0
 62
9
100
AcDbLine
 10
297.0
 20
-420.0
 30
0.0
 11
297.0
 21
-840.0
 31
0.0
  0
LINE
  5
66
330
17
100
AcDbEntity
  8
0
 62
9
100
AcDbLine
 10
594.0
 20
-420.0
 30
0.0
 11
594.0
 21
-840.0
 31
0.0
  0
LINE
  5
67
330
17
100
AcDbEntity
  8
0
 62
9
100
AcDbLine
 10
420.5
 20
-605.0
 30
0.0
 11
470.5
 21
-605.0
 31
0.0
  0
LINE
  5
68
330
17
100
AcDbEntity
  8
0
 62
9
100
AcDbLine
 10
470.5
 20
-655.0
 30
0.0
 11
470.5
 21
-605.0
 31
0.0
  0
LINE
  5
69
330
17
100
AcDbEntity
  8
0
 62
9
100
AcDbLine
 10
420.5
 20
-605.0
 30
0.0
 11
420.5
 21
-655.0
 31
0.0
  0
LINE
  5
6A
330
17
100
AcDbEntity
  8
0
 62
9
100
AcDbLine
 10
420.5
 20
-655.0
 30
0.0
 11
470.5
 21
-655.0
 31
0.0
  0
TEXT
  5
6B
330
17
100
AcDbEntity
  8
TEXTLAYER
 62
1
100
AcDbText
 10
445.5
 20
-630.0
 30
0.0
 40
10.0
  1
2-2
 72
1
 11
445.5
 21
-630.0
 31
0.0
100
AcDbText
  0
LINE
  5
6C
330
17
100
AcDbEntity
  8
0
 62
9
100
AcDbLine
 10
594.0
 20
-420.0
 30
0.0
 11
891.0
 21
-420.0
 31
0.0
  0
LINE
  5
6D
330
17
100
AcDbEntity
  8
0
 62
9
100
AcDbLine
 10
594.0
 20
-840.0
 30
0.0
 11
891.0
 21
-840.0
 31
0.0
  0
LINE
  5
6E
330
17
100
AcDbEntity
  8
0
 62
9
100
AcDbLine
 10
594.0
 20
-420.0
 30
0.0
 11
594.0
 21
-840.0
 31
0.0
  0
LINE
  5
6F
330
17
100
AcDbEntity
  8
0
 62
9
100
AcDbLine
 10
891.0
 20
-420.0
 30
0.0
 11
891.0
 21
-840.0
 31
0.0
  0
LINE
  5
70
330
17
100
AcDbEntity
  8
0
 62
9
100
AcDbLine
 10
717.5
 20
-605.0
 30
0.0
 11
767.5
 21
-605.0
 31
0.0
  0
LINE
  5
71
330
17
100
AcDbEntity
  8
0
 62
9
100
AcDbLine
 10
767.5
 20
-655.0
 30
0.0
 11
767.5
 21
-605.0
 31
0.0
  0
LINE
  5
72
330
17
100
AcDbEntity
  8
0
 62
9
100
AcDbLine
 10
717.5
 20
-605.0
 30
0.0
 11
717.5
 21
-655.0
 31
0.0
  0
LINE
  5
73
330
17
100
AcDbEntity
  8
0
 62
9
100
AcDbLine
 10
717.5
 20
-655.0
 30
0.0
 11
767.5
 21
-655.0
 31
0.0
  0
TEXT
  5
74
330
17
100
AcDbEntity
  8
TEXTLAYER
 62
1
100
AcDbText
 10
742.5
 20
-630.0
 30
0.0
 40
10.0
  1
2-3
 72
1
 11
742.5
 21
-630.0
 31
0.0
100
AcDbText
  0
LINE
  5
75
330
17
100
AcDbEntity
  8
0
 62
9
100
AcDbLine
 10
891.0
 20
-420.0
 30
0.0
 11
1188.0
 21
-420.0
 31
0.0
  0
LINE
  5
76
330
17
100
AcDbEntity
  8
0
 62
9
100
AcDbLine
 10
891.0
 20
-840.0
 30
0.0
 11
1188.0
 21
-840.0
 31
0.0
  0
LINE
  5
77
330
17
100
AcDbEntity
  8
0
 62
9
100
AcDbLine
 10
891.0
 20
-420.0
 30
0.0
 11
891.0
 21
-840.0
 31
0.0
  0
LINE
  5
78
330
17
100
AcDbEntity
  8
0
 62
9
100
AcDbLine
 10
1188.0
 20
-420.0
 30
0.0
 11
1188.0
 21
-840.0
 31
0.0
  0
LINE
  5
79
330
17
100
AcDbEntity
  8
0
 62
9
100
AcDbLine
 10
1014.5
 20
-605.0
 30
0.0
 11
1064.5
 21
-605.0
 31
0.0
  0
LINE
  5
7A
330
17
100
AcDbEntity
  8
0
 62
9
100
AcDbLine
 10
1064.5
 20
-655.0
 30
0.0
 11
1064.5
 21
-605.0
 31
0.0
  0
LINE
  5
7B
330
17
100
AcDbEntity
  8
0
 62
9
100
AcDbLine
 10
1014.5
 20
-605.0
 30
0.0
 11
1014.5
 21
-655.0
 31
0.0
  0
LINE
  5
7C
330
17
100
AcDbEntity
  8
0
 62
9
100
AcDbLine
 10
1014.5
 20
-655.0
 30
0.0
 11
1064.5
 21
-655.0
 31
0.0
  0
TEXT
  5
7D
330
17
100
AcDbEntity
  8
TEXTLAYER
 62
1
100
AcDbText
 10
1039.5
 20
-630.0
 30
0.0
 40
10.0
  1
2-4
 72
1
 11
1039.5
 21
-630.0
 31
0.0
100
AcDbText
  0
LINE
  5
7E
330
17
100
AcDbEntity
  8
0
 62
9
100
AcDbLine
 10
1188.0
 20
-420.0
 30
0.0
 11
1485.0
 21
-420.0
 31
0.0
  0
LINE
  5
7F
330
17
100
AcDbEntity
  8
0
 62
9
100
AcDbLine
 10
1188.0
 20
-840.0
 30
0.0
 11
1485.0
 21
-840.0
 31
0.0
  0
LINE
  5
80
330
17
100
AcDbEntity
  8
0
 62
9
100
AcDbLine
 10
1188.0
 20
-420.0
 30
0.0
 11
1188.0
 21
-840.0
 31
0.0
  0
LINE
  5
81
330
17
100
AcDbEntity
  8
0
 62
9
100
AcDbLine
 10
1485.0
 20
-420.0
 30
0.0
 11
1485.0
 21
-840.0
 31
0.0
  0
LINE
  5
82
330
17
100
AcDbEntity
  8
0
 62
9
100
AcDbLine
 10
1311.5
 20
-605.0
 30
0.0
 11
1361.5
 21
-605.0
 31
0.0
  0
LINE
  5
83
330
17
100
AcDbEntity
  8
0
 62
9
100
AcDbLine
 10
1361.5
 20
-655.0
 30
0.0
 11
1361.5
 21
-605.0
 31
0.0
  0
LINE
  5
84
330
17
100
AcDbEntity
  8
0
 62
9
100
AcDbLine
 10
1311.5
 20
-605.0
 30
0.0
 11
1311.5
 21
-655.0
 31
0.0
  0
LINE
  5
85
330
17
100
AcDbEntity
  8
0
 62
9
100
AcDbLine
 10
1311.5
 20
-655.0
 30
0.0
 11
1361.5
 21
-655.0
 31
0.0
  0
TEXT
  5
86
330
17
100
AcDbEntity
  8
TEXTLAYER
 62
1
100
AcDbText
 10
1336.5
 20
-630.0
 30
0.0
 40
10.0
  1
2-5
 72
1
 11
1336.5
 21
-630.0
 31
0.0
100
AcDbText
  0
LINE
  5
87
330
17
100
AcDbEntity
  8
0
 62
9
100
AcDbLine
 10
0.0
 20
-840.0
 30
0.0
 11
297.0
 21
-840.0
 31
0.0
  0
LINE
  5
88
330
17
100
AcDbEntity
  8
0
 62
9
100
AcDbLine
 10
0.0
 20
-1260.0
 30
0.0
 11
297.0
 21
-1260.0
 31
0.0
  0
LINE
  5
89
330
17
100
AcDbEntity
  8
0
 62
9
100
AcDbLine
 10
0.0
 20
-840.0
 30
0.0
 11
0.0
 21
-1260.0
 31
0.0
  0
LINE
  5
8A
330
17
100
AcDbEntity
  8
0
 62
9
100
AcDbLine
 10
297.0
 20
-840.0
 30
0.0
 11
297.0
 21
-1260.0
 31
0.0
  0
LINE
  5
8B
330
17
100
AcDbEntity
  8
0
 62
9
100
AcDbLine
 10
123.5
 20
-1025.0
 30
0.0
 11
173.5
 21
-1025.0
 31
0.0
  0
LINE
  5
8C
330
17
100
AcDbEntity
  8
0
 62
9
100
AcDbLine
 10
173.5
 20
-1075.0
 30
0.0
 11
173.5
 21
-1025.0
 31
0.0
  0
LINE
  5
8D
330
17
100
AcDbEntity
  8
0
 62
9
100
AcDbLine
 10
123.5
 20
-1025.0
 30
0.0
 11
123.5
 21
-1075.0
 31
0.0
  0
LINE
  5
8E
330
17
100
AcDbEntity
  8
0
 62
9
100
AcDbLine
 10
123.5
 20
-1075.0
 30
0.0
 11
173.5
 21
-1075.0
 31
0.0
  0
TEXT
  5
8F
330
17
100
AcDbEntity
  8
TEXTLAYER
 62
1
100
AcDbText
 10
148.5
 20
-1050.0
 30
0.0
 40
10.0
  1
3-1
 72
1
 11
148.5
 21
-1050.0
 31
0.0
100
AcDbText
  0
LINE
  5
90
330
17
100
AcDbEntity
  8
0
 62
9
100
AcDbLine
 10
297.0
 20
-840.0
 30
0.0
 11
594.0
 21
-840.0
 31
0.0
  0
LINE
  5
91
330
17
100
AcDbEntity
  8
0
 62
9
100
AcDbLine
 10
297.0
 20
-1260.0
 30
0.0
 11
594.0
 21
-1260.0
 31
0.0
  0
LINE
  5
92
330
17
100
AcDbEntity
  8
0
 62
9
100
AcDbLine
 10
297.0
 20
-840.0
 30
0.0
 11
297.0
 21
-1260.0
 31
0.0
  0
LINE
  5
93
330
17
100
AcDbEntity
  8
0
 62
9
100
AcDbLine
 10
594.0
 20
-840.0
 30
0.0
 11
594.0
 21
-1260.0
 31
0.0
  0
LINE
  5
94
330
17
100
AcDbEntity
  8
0
 62
9
100
AcDbLine
 10
420.5
 20
-1025.0
 30
0.0
 11
470.5
 21
-1025.0
 31
0.0
  0
LINE
  5
95
330
17
100
AcDbEntity
  8
0
 62
9
100
AcDbLine
 10
470.5
 20
-1075.0
 30
0.0
 11
470.5
 21
-1025.0
 31
0.0
  0
LINE
  5
96
330
17
100
AcDbEntity
  8
0
 62
9
100
AcDbLine
 10
420.5
 20
-1025.0
 30
0.0
 11
420.5
 21
-1075.0
 31
0.0
  0
LINE
  5
97
330
17
100
AcDbEntity
  8
0
 62
9
100
AcDbLine
 10
420.5
 20
-1075.0
 30
0.0
 11
470.5
 21
-1075.0
 31
0.0
  0
TEXT
  5
98
330
17
100
AcDbEntity
  8
TEXTLAYER
 62
1
100
AcDbText
 10
445.5
 20
-1050.0
 30
0.0
 40
10.0
  1
3-2
 72
1
 11
445.5
 21
-1050.0
 31
0.0
100
AcDbText
  0
LINE
  5
99
330
17
100
AcDbEntity
  8
0
 62
9
100
AcDbLine
 10
594.0
 20
-840.0
 30
0.0
 11
891.0
 21
-840.0
 31
0.0
  0
LINE
  5
9A
330
17
100
AcDbEntity
  8
0
 62
9
100
AcDbLine
 10
594.0
 20
-1260.0
 30
0.0
 11
891.0
 21
-1260.0
 31
0.0
  0
LINE
  5
9B
330
17
100
AcDbEntity
  8
0
 62
9
100
AcDbLine
 10
594.0
 20
-840.0
 30
0.0
 11
594.0
 21
-1260.0
 31
0.0
  0
LINE
  5
9C
330
17
100
AcDbEntity
  8
0
 62
9
100
AcDbLine
 10
891.0
 20
-840.0
 30
0.0
 11
891.0
 21
-1260.0
 31
0.0
  0
LINE
  5
9D
330
17
100
AcDbEntity
  8
0
 62
9
100
AcDbLine
 10
717.5
 20
-1025.0
 30
0.0
 11
767.5
 21
-1025.0
 31
0.0
  0
LINE
  5
9E
330
17
100
AcDbEntity
  8
0
 62
9
100
AcDbLine
 10
767.5
 20
-1075.0
 30
0.0
 11
767.5
 21
-1025.0
 31
0.0
  0
LINE
  5
9F
330
17
100
AcDbEntity
  8
0
 62
9
100
AcDbLine
 10
717.5
 20
-1025.0
 30
0.0
 11
717.5
 21
-1075.0
 31
0.0
  0
LINE
  5
A0
330
17
100
AcDbEntity
  8
0
 62
9
100
AcDbLine
 10
717.5
 20
-1075.0
 30
0.0
 11
767.5
 21
-1075.0
 31
0.0
  0
TEXT
  5
A1
330
17
100
AcDbEntity
  8
TEXTLAYER
 62
1
100
AcDbText
 10
742.5
 20
-1050.0
 30
0.0
 40
10.0
  1
3-3
 72
1
 11
742.5
 21
-1050.0
 31
0.0
100
AcDbText
  0
LINE
  5
A2
330
17
100
AcDbEntity
  8
0
 62
9
100
AcDbLine
 10
891.0
 20
-840.0
 30
0.0
 11
1188.0
 21
-840.0
 31
0.0
  0
LINE
  5
A3
330
17
100
AcDbEntity
  8
0
 62
9
100
AcDbLine
 10
891.0
 20
-1260.0
 30
0.0
 11
1188.0
 21
-1260.0
 31
0.0
  0
LINE
  5
A4
330
17
100
AcDbEntity
  8
0
 62
9
100
AcDbLine
 10
891.0
 20
-840.0
 30
0.0
 11
891.0
 21
-1260.0
 31
0.0
  0
LINE
  5
A5
330
17
100
AcDbEntity
  8
0
 62
9
100
AcDbLine
 10
1188.0
 20
-840.0
 30
0.0
 11
1188.0
 21
-1260.0
 31
0.0
  0
LINE
  5
A6
330
17
100
AcDbEntity
  8
0
 62
9
100
AcDbLine
 10
1014.5
 20
-1025.0
 30
0.0
 11
1064.5
 21
-1025.0
 31
0.0
  0
LINE
  5
A7
330
17
100
AcDbEntity
  8
0
 62
9
100
AcDbLine
 10
1064.5
 20
-1075.0
 30
0.0
 11
1064.5
 21
-1025.0
 31
0.0
  0
LINE
  5
A8
330
17
100
AcDbEntity
  8
0
 62
9
100
AcDbLine
 10
1014.5
 20
-1025.0
 30
0.0
 11
1014.5
 21
-1075.0
 31
0.0
  0
LINE
  5
A9
330
17
100
AcDbEntity
  8
0
 62
9
100
AcDbLine
 10
1014.5
 20
-1075.0
 30
0.0
 11
1064.5
 21
-1075.0
 31
0.0
  0
TEXT
  5
AA
330
17
100
AcDbEntity
  8
TEXTLAYER
 62
1
100
AcDbText
 10
1039.5
 20
-1050.0
 30
0.0
 40
10.0
  1
3-4
 72
1
 11
1039.5
 21
-1050.0
 31
0.0
100
AcDbText
  0
LINE
  5
AB
330
17
100
AcDbEntity
  8
0
 62
9
100
AcDbLine
 10
1188.0
 20
-840.0
 30
0.0
 11
1485.0
 21
-840.0
 31
0.0
  0
LINE
  5
AC
330
17
100
AcDbEntity
  8
0
 62
9
100
AcDbLine
 10
1188.0
 20
-1260.0
 30
0.0
 11
1485.0
 21
-1260.0
 31
0.0
  0
LINE
  5
AD
330
17
100
AcDbEntity
  8
0
 62
9
100
AcDbLine
 10
1188.0
 20
-840.0
 30
0.0
 11
1188.0
 21
-1260.0
 31
0.0
  0
LINE
  5
AE
330
17
100
AcDbEntity
  8
0
 62
9
100
AcDbLine
 10
1485.0
 20
-840.0
 30
0.0
 11
1485.0
 21
-1260.0
 31
0.0
  0
LINE
  5
AF
330
17
100
AcDbEntity
  8
0
 62
9
100
AcDbLine
 10
1311.5
 20
-1025.0
 30
0.0
 11
1361.5
 21
-1025.0
 31
0.0
  0
LINE
  5
B0
330
17
100
AcDbEntity
  8
0
 62
9
100
AcDbLine
 10
1361.5
 20
-1075.0
 30
0.0
 11
1361.5
 21
-1025.0
 31
0.0
  0
LINE
  5
B1
330
17
100
AcDbEntity
  8
0
 62
9
100
AcDbLine
 10
1311.5
 20
-1025.0
 30
0.0
 11
1311.5
 21
-1075.0
 31
0.0
  0
LINE
  5
B2
330
17
100
AcDbEntity
  8
0
 62
9
100
AcDbLine
 10
1311.5
 20
-1075.0
 30
0.0
 11
1361.5
 21
-1075.0
 31
0.0
  0
TEXT
  5
B3
330
17
100
AcDbEntity
  8
TEXTLAYER
 62
1
100
AcDbText
 10
1336.5
 20
-1050.0
 30
0.0
 40
10.0
  1
3-5
 72
1
 11
1336.5
 21
-1050.0
 31
0.0
100
AcDbText
  0
LINE
  5
B4
330
17
100
AcDbEntity
  8
0
 62
9
100
AcDbLine
 10
0.0
 20
-1260.0
 30
0.0
 11
297.0
 21
-1260.0
 31
0.0
  0
LINE
  5
B5
330
17
100
AcDbEntity
  8
0
 62
9
100
AcDbLine
 10
0.0
 20
-1680.0
 30
0.0
 11
297.0
 21
-1680.0
 31
0.0
  0
LINE
  5
B6
330
17
100
AcDbEntity
  8
0
 62
9
100
AcDbLine
 10
0.0
 20
-1260.0
 30
0.0
 11
0.0
 21
-1680.0
 31
0.0
  0
LINE
  5
B7
330
17
100
AcDbEntity
  8
0
 62
9
100
AcDbLine
 10
297.0
 20
-1260.0
 30
0.0
 11
297.0
 21
-1680.0
 31
0.0
  0
LINE
  5
B8
330
17
100
AcDbEntity
  8
0
 62
9
100
AcDbLine
 10
123.5
 20
-1445.0
 30
0.0
 11
173.5
 21
-1445.0
 31
0.0
  0
LINE
  5
B9
330
17
100
AcDbEntity
  8
0
 62
9
100
AcDbLine
 10
173.5
 20
-1495.0
 30
0.0
 11
173.5
 21
-1445.0
 31
0.0
  0
LINE
  5
BA
330
17
100
AcDbEntity
  8
0
 62
9
100
AcDbLine
 10
123.5
 20
-1445.0
 30
0.0
 11
123.5
 21
-1495.0
 31
0.0
  0
LINE
  5
BB
330
17
100
AcDbEntity
  8
0
 62
9
100
AcDbLine
 10
123.5
 20
-1495.0
 30
0.0
 11
173.5
 21
-1495.0
 31
0.0
  0
TEXT
  5
BC
330
17
100
AcDbEntity
  8
TEXTLAYER
 62
1
100
AcDbText
 10
148.5
 20
-1470.0
 30
0.0
 40
10.0
  1
4-1
 72
1
 11
148.5
 21
-1470.0
 31
0.0
100
AcDbText
  0
LINE
  5
BD
330
17
100
AcDbEntity
  8
0
 62
9
100
AcDbLine
 10
297.0
 20
-1260.0
 30
0.0
 11
594.0
 21
-1260.0
 31
0.0
  0
LINE
  5
BE
330
17
100
AcDbEntity
  8
0
 62
9
100
AcDbLine
 10
297.0
 20
-1680.0
 30
0.0
 11
594.0
 21
-1680.0
 31
0.0
  0
LINE
  5
BF
330
17
100
AcDbEntity
  8
0
 62
9
100
AcDbLine
 10
297.0
 20
-1260.0
 30
0.0
 11
297.0
 21
-1680.0
 31
0.0
  0
LINE
  5
C0
330
17
100
AcDbEntity
  8
0
 62
9
100
AcDbLine
 10
594.0
 20
-1260.0
 30
0.0
 11
594.0
 21
-1680.0
 31
0.0
  0
LINE
  5
C1
330
17
100
AcDbEntity
  8
0
 62
9
100
AcDbLine
 10
420.5
 20
-1445.0
 30
0.0
 11
470.5
 21
-1445.0
 31
0.0
  0
LINE
  5
C2
330
17
100
AcDbEntity
  8
0
 62
9
100
AcDbLine
 10
470.5
 20
-1495.0
 30
0.0
 11
470.5
 21
-1445.0
 31
0.0
  0
LINE
  5
C3
330
17
100
AcDbEntity
  8
0
 62
9
100
AcDbLine
 10
420.5
 20
-1445.0
 30
0.0
 11
420.5
 21
-1495.0
 31
0.0
  0
LINE
  5
C4
330
17
100
AcDbEntity
  8
0
 62
9
100
AcDbLine
 10
420.5
 20
-1495.0
 30
0.0
 11
470.5
 21
-1495.0
 31
0.0
  0
TEXT
  5
C5
330
17
100
AcDbEntity
  8
TEXTLAYER
 62
1
100
AcDbText
 10
445.5
 20
-1470.0
 30
0.0
 40
10.0
  1
4-2
 72
1
 11
445.5
 21
-1470.0
 31
0.0
100
AcDbText
  0
LINE
  5
C6
330
17
100
AcDbEntity
  8
0
 62
9
100
AcDbLine
 10
594.0
 20
-1260.0
 30
0.0
 11
891.0
 21
-1260.0
 31
0.0
  0
LINE
  5
C7
330
17
100
AcDbEntity
  8
0
 62
9
100
AcDbLine
 10
594.0
 20
-1680.0
 30
0.0
 11
891.0
 21
-1680.0
 31
0.0
  0
LINE
  5
C8
330
17
100
AcDbEntity
  8
0
 62
9
100
AcDbLine
 10
594.0
 20
-1260.0
 30
0.0
 11
594.0
 21
-1680.0
 31
0.0
  0
LINE
  5
C9
330
17
100
AcDbEntity
  8
0
 62
9
100
AcDbLine
 10
891.0
 20
-1260.0
 30
0.0
 11
891.0
 21
-1680.0
 31
0.0
  0
LINE
  5
CA
330
17
100
AcDbEntity
  8
0
 62
9
100
AcDbLine
 10
717.5
 20
-1445.0
 30
0.0
 11
767.5
 21
-1445.0
 31
0.0
  0
LINE
  5
CB
330
17
100
AcDbEntity
  8
0
 62
9
100
AcDbLine
 10
767.5
 20
-1495.0
 30
0.0
 11
767.5
 21
-1445.0
 31
0.0
  0
LINE
  5
CC
330
17
100
AcDbEntity
  8
0
 62
9
100
AcDbLine
 10
717.5
 20
-1445.0
 30
0.0
 11
717.5
 21
-1495.0
 31
0.0
  0
LINE
  5
CD
330
17
100
AcDbEntity
  8
0
 62
9
100
AcDbLine
 10
717.5
 20
-1495.0
 30
0.0
 11
767.5
 21
-1495.0
 31
0.0
  0
TEXT
  5
CE
330
17
100
AcDbEntity
  8
TEXTLAYER
 62
1
100
AcDbText
 10
742.5
 20
-1470.0
 30
0.0
 40
10.0
  1
4-3
 72
1
 11
742.5
 21
-1470.0
 31
0.0
100
AcDbText
  0
LINE
  5
CF
330
17
100
AcDbEntity
  8
0
 62
9
100
AcDbLine
 10
891.0
 20
-1260.0
 30
0.0
 11
1188.0
 21
-1260.0
 31
0.0
  0
LINE
  5
D0
330
17
100
AcDbEntity
  8
0
 62
9
100
AcDbLine
 10
891.0
 20
-1680.0
 30
0.0
 11
1188.0
 21
-1680.0
 31
0.0
  0
LINE
  5
D1
330
17
100
AcDbEntity
  8
0
 62
9
100
AcDbLine
 10
891.0
 20
-1260.0
 30
0.0
 11
891.0
 21
-1680.0
 31
0.0
  0
LINE
  5
D2
330
17
100
AcDbEntity
  8
0
 62
9
100
AcDbLine
 10
1188.0
 20
-1260.0
 30
0.0
 11
1188.0
 21
-1680.0
 31
0.0
  0
LINE
  5
D3
330
17
100
AcDbEntity
  8
0
 62
9
100
AcDbLine
 10
1014.5
 20
-1445.0
 30
0.0
 11
1064.5
 21
-1445.0
 31
0.0
  0
LINE
  5
D4
330
17
100
AcDbEntity
  8
0
 62
9
100
AcDbLine
 10
1064.5
 20
-1495.0
 30
0.0
 11
1064.5
 21
-1445.0
 31
0.0
  0
LINE
  5
D5
330
17
100
AcDbEntity
  8
0
 62
9
100
AcDbLine
 10
1014.5
 20
-1445.0
 30
0.0
 11
1014.5
 21
-1495.0
 31
0.0
  0
LINE
  5
D6
330
17
100
AcDbEntity
  8
0
 62
9
100
AcDbLine
 10
1014.5
 20
-1495.0
 30
0.0
 11
1064.5
 21
-1495.0
 31
0.0
  0
TEXT
  5
D7
330
17
100
AcDbEntity
  8
TEXTLAYER
 62
1
100
AcDbText
 10
1039.5
 20
-1470.0
 30
0.0
 40
10.0
  1
4-4
 72
1
 11
1039.5
 21
-1470.0
 31
0.0
100
AcDbText
  0
LINE
  5
D8
330
17
100
AcDbEntity
  8
0
 62
9
100
AcDbLine
 10
1188.0
 20
-1260.0
 30
0.0
 11
1485.0
 21
-1260.0
 31
0.0
  0
LINE
  5
D9
330
17
100
AcDbEntity
  8
0
 62
9
100
AcDbLine
 10
1188.0
 20
-1680.0
 30
0.0
 11
1485.0
 21
-1680.0
 31
0.0
  0
LINE
  5
DA
330
17
100
AcDbEntity
  8
0
 62
9
100
AcDbLine
 10
1188.0
 20
-1260.0
 30
0.0
 11
1188.0
 21
-1680.0
 31
0.0
  0
LINE
  5
DB
330
17
100
AcDbEntity
  8
0
 62
9
100
AcDbLine
 10
1485.0
 20
-1260.0
 30
0.0
 11
1485.0
 21
-1680.0
 31
0.0
  0
LINE
  5
DC
330
17
100
AcDbEntity
  8
0
 62
9
100
AcDbLine
 10
1311.5
 20
-1445.0
 30
0.0
 11
1361.5
 21
-1445.0
 31
0.0
  0
LINE
  5
DD
330
17
100
AcDbEntity
  8
0
 62
9
100
AcDbLine
 10
1361.5
 20
-1495.0
 30
0.0
 11
1361.5
 21
-1445.0
 31
0.0
  0
LINE
  5
DE
330
17
100
AcDbEntity
  8
0
 62
9
100
AcDbLine
 10
1311.5
 20
-1445.0
 30
0.0
 11
1311.5
 21
-1495.0
 31
0.0
  0
LINE
  5
DF
330
17
100
AcDbEntity
  8
0
 62
9
100
AcDbLine
 10
1311.5
 20
-1495.0
 30
0.0
 11
1361.5
 21
-1495.0
 31
0.0
  0
TEXT
  5
E0
330
17
100
AcDbEntity
  8
TEXTLAYER
 62
1
100
AcDbText
 10
1336.5
 20
-1470.0
 30
0.0
 40
10.0
  1
4-5
 72
1
 11
1336.5
 21
-1470.0
 31
0.0
100
AcDbText
  0
LINE
  5
E1
330
17
100
AcDbEntity
  8
0
 62
9
100
AcDbLine
 10
0.0
 20
-1680.0
 30
0.0
 11
297.0
 21
-1680.0
 31
0.0
  0
LINE
  5
E2
330
17
100
AcDbEntity
  8
0
 62
9
100
AcDbLine
 10
0.0
 20
-2100.0
 30
0.0
 11
297.0
 21
-2100.0
 31
0.0
  0
LINE
  5
E3
330
17
100
AcDbEntity
  8
0
 62
9
100
AcDbLine
 10
0.0
 20
-1680.0
 30
0.0
 11
0.0
 21
-2100.0
 31
0.0
  0
LINE
  5
E4
330
17
100
AcDbEntity
  8
0
 62
9
100
AcDbLine
 10
297.0
 20
-1680.0
 30
0.0
 11
297.0
 21
-2100.0
 31
0.0
  0
LINE
  5
E5
330
17
100
AcDbEntity
  8
0
 62
9
100
AcDbLine
 10
123.5
 20
-1865.0
 30
0.0
 11
173.5
 21
-1865.0
 31
0.0
  0
LINE
  5
E6
330
17
100
AcDbEntity
  8
0
 62
9
100
AcDbLine
 10
173.5
 20
-1915.0
 30
0.0
 11
173.5
 21
-1865.0
 31
0.0
  0
LINE
  5
E7
330
17
100
AcDbEntity
  8
0
 62
9
100
AcDbLine
 10
123.5
 20
-1865.0
 30
0.0
 11
123.5
 21
-1915.0
 31
0.0
  0
LINE
  5
E8
330
17
100
AcDbEntity
  8
0
 62
9
100
AcDbLine
 10
123.5
 20
-1915.0
 30
0.0
 11
173.5
 21
-1915.0
 31
0.0
  0
TEXT
  5
E9
330
17
100
AcDbEntity
  8
TEXTLAYER
 62
1
100
AcDbText
 10
148.5
 20
-1890.0
 30
0.0
 40
10.0
  1
5-1
 72
1
 11
148.5
 21
-1890.0
 31
0.0
100
AcDbText
  0
LINE
  5
EA
330
17
100
AcDbEntity
  8
0
 62
9
100
AcDbLine
 10
297.0
 20
-1680.0
 30
0.0
 11
594.0
 21
-1680.0
 31
0.0
  0
LINE
  5
EB
330
17
100
AcDbEntity
  8
0
 62
9
100
AcDbLine
 10
297.0
 20
-2100.0
 30
0.0
 11
594.0
 21
-2100.0
 31
0.0
  0
LINE
  5
EC
330
17
100
AcDbEntity
  8
0
 62
9
100
AcDbLine
 10
297.0
 20
-1680.0
 30
0.0
 11
297.0
 21
-2100.0
 31
0.0
  0
LINE
  5
ED
330
17
100
AcDbEntity
  8
0
 62
9
100
AcDbLine
 10
594.0
 20
-1680.0
 30
0.0
 11
594.0
 21
-2100.0
 31
0.0
  0
LINE
  5
EE
330
17
100
AcDbEntity
  8
0
 62
9
100
AcDbLine
 10
420.5
 20
-1865.0
 30
0.0
 11
470.5
 21
-1865.0
 31
0.0
  0
LINE
  5
EF
330
17
100
AcDbEntity
  8
0
 62
9
100
AcDbLine
 10
470.5
 20
-1915.0
 30
0.0
 11
470.5
 21
-1865.0
 31
0.0
  0
LINE
  5
F0
330
17
100
AcDbEntity
  8
0
 62
9
100
AcDbLine
 10
420.5
 20
-1865.0
 30
0.0
 11
420.5
 21
-1915.0
 31
0.0
  0
LINE
  5
F1
330
17
100
AcDbEntity
  8
0
 62
9
100
AcDbLine
 10
420.5
 20
-1915.0
 30
0.0
 11
470.5
 21
-1915.0
 31
0.0
  0
TEXT
  5
F2
330
17
100
AcDbEntity
  8
TEXTLAYER
 62
1
100
AcDbText
 10
445.5
 20
-1890.0
 30
0.0
 40
10.0
  1
5-2
 72
1
 11
445.5
 21
-1890.0
 31
0.0
100
AcDbText
  0
LINE
  5
F3
330
17
100
AcDbEntity
  8
0
 62
9
100
AcDbLine
 10
594.0
 20
-1680.0
 30
0.0
 11
891.0
 21
-1680.0
 31
0.0
  0
LINE
  5
F4
330
17
100
AcDbEntity
  8
0
 62
9
100
AcDbLine
 10
594.0
 20
-2100.0
 30
0.0
 11
891.0
 21
-2100.0
 31
0.0
  0
LINE
  5
F5
330
17
100
AcDbEntity
  8
0
 62
9
100
AcDbLine
 10
594.0
 20
-1680.0
 30
0.0
 11
594.0
 21
-2100.0
 31
0.0
  0
LINE
  5
F6
330
17
100
AcDbEntity
  8
0
 62
9
100
AcDbLine
 10
891.0
 20
-1680.0
 30
0.0
 11
891.0
 21
-2100.0
 31
0.0
  0
LINE
  5
F7
330
17
100
AcDbEntity
  8
0
 62
9
100
AcDbLine
 10
717.5
 20
-1865.0
 30
0.0
 11
767.5
 21
-1865.0
 31
0.0
  0
LINE
  5
F8
330
17
100
AcDbEntity
  8
0
 62
9
100
AcDbLine
 10
767.5
 20
-1915.0
 30
0.0
 11
767.5
 21
-1865.0
 31
0.0
  0
LINE
  5
F9
330
17
100
AcDbEntity
  8
0
 62
9
100
AcDbLine
 10
717.5
 20
-1865.0
 30
0.0
 11
717.5
 21
-1915.0
 31
0.0
  0
LINE
  5
FA
330
17
100
AcDbEntity
  8
0
 62
9
100
AcDbLine
 10
717.5
 20
-1915.0
 30
0.0
 11
767.5
 21
-1915.0
 31
0.0
  0
TEXT
  5
FB
330
17
100
AcDbEntity
  8
TEXTLAYER
 62
1
100
AcDbText
 10
742.5
 20
-1890.0
 30
0.0
 40
10.0
  1
5-3
 72
1
 11
742.5
 21
-1890.0
 31
0.0
100
AcDbText
  0
LINE
  5
FC
330
17
100
AcDbEntity
  8
0
 62
9
100
AcDbLine
 10
891.0
 20
-1680.0
 30
0.0
 11
1188.0
 21
-1680.0
 31
0.0
  0
LINE
  5
FD
330
17
100
AcDbEntity
  8
0
 62
9
100
AcDbLine
 10
891.0
 20
-2100.0
 30
0.0
 11
1188.0
 21
-2100.0
 31
0.0
  0
LINE
  5
FE
330
17
100
AcDbEntity
  8
0
 62
9
100
AcDbLine
 10
891.0
 20
-1680.0
 30
0.0
 11
891.0
 21
-2100.0
 31
0.0
  0
LINE
  5
FF
330
17
100
AcDbEntity
  8
0
 62
9
100
AcDbLine
 10
1188.0
 20
-1680.0
 30
0.0
 11
1188.0
 21
-2100.0
 31
0.0
  0
LINE
  5
100
330
17
100
AcDbEntity
  8
0
 62
9
100
AcDbLine
 10
1014.5
 20
-1865.0
 30
0.0
 11
1064.5
 21
-1865.0
 31
0.0
  0
LINE
  5
101
330
17
100
AcDbEntity
  8
0
 62
9
100
AcDbLine
 10
1064.5
 20
-1915.0
 30
0.0
 11
1064.5
 21
-1865.0
 31
0.0
  0
LINE
  5
102
330
17
100
AcDbEntity
  8
0
 62
9
100
AcDbLine
 10
1014.5
 20
-1865.0
 30
0.0
 11
1014.5
 21
-1915.0
 31
0.0
  0
LINE
  5
103
330
17
100
AcDbEntity
  8
0
 62
9
100
AcDbLine
 10
1014.5
 20
-1915.0
 30
0.0
 11
1064.5
 21
-1915.0
 31
0.0
  0
TEXT
  5
104
330
17
100
AcDbEntity
  8
TEXTLAYER
 62
1
100
AcDbText
 10
1039.5
 20
-1890.0
 30
0.0
 40
10.0
  1
5-4
 72
1
 11
1039.5
 21
-1890.0
 31
0.0
100
AcDbText
  0
LINE
  5
105
330
17
100
AcDbEntity
  8
0
 62
9
100
AcDbLine
 10
1188.0
 20
-1680.0
 30
0.0
 11
1485.0
 21
-1680.0
 31
0.0
  0
LINE
  5
106
330
17
100
AcDbEntity
  8
0
 62
9
100
AcDbLine
 10
1188.0
 20
-2100.0
 30
0.0
 11
1485.0
 21
-2100.0
 31
0.0
  0
LINE
  5
107
330
17
100
AcDbEntity
  8
0
 62
9
100
AcDbLine
 10
1188.0
 20
-1680.0
 30
0.0
 11
1188.0
 21
-2100.0
 31
0.0
  0
LINE
  5
108
330
17
100
AcDbEntity
  8
0
 62
9
100
AcDbLine
 10
1485.0
 20
-1680.0
 30
0.0
 11
1485.0
 21
-2100.0
 31
0.0
  0
LINE
  5
109
330
17
100
AcDbEntity
  8
0
 62
9
100
AcDbLine
 10
1311.5
 20
-1865.0
 30
0.0
 11
1361.5
 21
-1865.0
 31
0.0
  0
LINE
  5
10A
330
17
100
AcDbEntity
  8
0
 62
9
100
AcDbLine
 10
1361.5
 20
-1915.0
 30
0.0
 11
1361.5
 21
-1865.0
 31
0.0
  0
LINE
  5
10B
330
17
100
AcDbEntity
  8
0
 62
9
100
AcDbLine
 10
1311.5
 20
-1865.0
 30
0.0
 11
1311.5
 21
-1915.0
 31
0.0
  0
LINE
  5
10C
330
17
100
AcDbEntity
  8
0
 62
9
100
AcDbLine
 10
1311.5
 20
-1915.0
 30
0.0
 11
1361.5
 21
-1915.0
 31
0.0
  0
TEXT
  5
10D
330
17
100
AcDbEntity
  8
TEXTLAYER
 62
1
100
AcDbText
 10
1336.5
 20
-1890.0
 30
0.0
 40
10.0
  1
5-5
 72
1
 11
1336.5
 21
-1890.0
 31
0.0
100
AcDbText
  0
VIEWPORT
  5
10F
330
1B
100
AcDbEntity
 67
1
  8
VIEWPORTS
100
AcDbViewport
 10
148.5
 20
210.0
 30
0.0
 40
326.70000000000005
 41
462.00000000000006
 68
1
 69
1
 12
148.5
 22
210.0
 13
0.0
 23
0.0
 14
10.0
 24
10.0
 15
10.0
 25
10.0
 16
0.0
 26
0.0
 36
0.0
 17
0.0
 27
0.0
 37
0.0
 42
50.0
 43
0.0
 44
0.0
 45
462.00000000000006
 50
0.0
 51
0.0
 72
100
 90
557088
  1

281
0
 71
0
 74
0
110
0.0
120
0.0
130
0.0
111
1.0
121
0.0
131
0.0
112
0.0
122
1.0
132
0.0
 79
0
146
0.0
  0
VIEWPORT
  5
110
330
1B
100
AcDbEntity
 67
1
  8
VIEWPORTS
100
AcDbViewport
 10
148.5
 20
210.0
 30
0.0
 40
297.0
 41
420.0
 68
1
 69
3
 12
742.5
 22
-1050.0
 13
0.0
 23
0.0
 14
10.0
 24
10.0
 15
10.0
 25
10.0
 16
0.0
 26
0.0
 36
0.0
 17
0.0
 27
0.0
 37
0.0
 42
50.0
 43
0.0
 44
0.0
 45
2100.0
 50
0.0
 51
0.0
 72
100
 90
0
  1

281
0
 71
0
 74
0
110
0.0
120
0.0
130
0.0
111
1.0
121
0.0
131
0.0
112
0.0
122
1.0
132
0.0
 79
0
146
0.0
  0
ENDSEC
  0
SECTION
  2
OBJECTS
  0
DICTIONARY
  5
A
330
0
100
AcDbDictionary
281
1
  3
ACAD_COLOR
350
B
  3
ACAD_GROUP
350
C
  3
ACAD_LAYOUT
350
D
  3
ACAD_MATERIAL
350
E
  3
ACAD_MLEADERSTYLE
350
F
  3
ACAD_MLINESTYLE
350
10
  3
ACAD_PLOTSETTINGS
350
11
  3
ACAD_PLOTSTYLENAME
350
12
  3
ACAD_SCALELIST
350
14
  3
ACAD_TABLESTYLE
350
15
  3
ACAD_VISUALSTYLE
350
16
  0
DICTIONARY
  5
B
330
A
100
AcDbDictionary
281
1
  0
DICTIONARY
  5
C
330
A
100
AcDbDictionary
281
1
  0
DICTIONARY
  5
D
330
A
100
AcDbDictionary
281
1
  3
Model
350
1A
  3
Layout1
350
1E
  3
Plan 1-1
350
114
  3
Plan 1-2
350
11A
  3
Plan 1-3
350
120
  3
Plan 1-4
350
126
  3
Plan 1-5
350
12C
  3
Plan 2-1
350
132
  3
Plan 2-2
350
138
  3
Plan 2-3
350
13E
  3
Plan 2-4
350
144
  3
Plan 2-5
350
14A
  3
Plan 3-1
350
150
  3
Plan 3-2
350
156
  3
Plan 3-3
350
15C
  3
Plan 3-4
350
162
  3
Plan 3-5
350
168
  3
Plan 4-1
350
16E
  3
Plan 4-2
350
174
  3
Plan 4-3
350
17A
  3
Plan 4-4
350
180
  3
Plan 4-5
350
186
  3
Plan 5-1
350
18C
  3
Plan 5-2
350
192
  3
Plan 5-3
350
198
  3
Plan 5-4
350
19E
  3
Plan 5-5
350
1A4
  0
DICTIONARY
  5
E
330
A
100
AcDbDictionary
281
1
  3
ByBlock
350
1F
  3
ByLayer
350
20
  3
Global
350
21
  0
DICTIONARY
  5
F
330
A
100
AcDbDictionary
281
1
  3
Standard
350
2C
  0
DICTIONARY
  5
10
330
A
100
AcDbDictionary
281
1
  3
Standard
350
22
  0
DICTIONARY
  5
11
330
A
100
AcDbDictionary
281
1
  0
ACDBDICTIONARYWDFLT
  5
12
330
A
100
AcDbDictionary
281
1
  3
Normal
350
13
100
AcDbDictionaryWithDefault
340
13
  0
ACDBPLACEHOLDER
  5
13
330
12
  0
DICTIONARY
  5
14
330
A
100
AcDbDictionary
281
1
  0
DICTIONARY
  5
15
330
A
100
AcDbDictionary
281
1
  0
DICTIONARY
  5
16
330
A
100
AcDbDictionary
281
1
  0
LAYOUT
  5
1A
330
D
100
AcDbPlotSettings
  1

  2
Adobe PDF
  4
A4
  6

 40
3.175
 41
3.175
 42
3.175
 43
3.175
 44
209.91
 45
297.03
 46
0.0
 47
0.0
 48
0.0
 49
0.0
140
0.0
141
0.0
142
1.0
143
1.0
 70
1024
 72
0
 73
1
 74
5
  7

 75
16
 76
0
 77
2
 78
300
147
1.0
148
0.0
149
0.0
100
AcDbLayout
  1
Model
 70
1
 71
0
 10
-3.175
 20
-3.175
 11
293.857
 21
206.735
 12
0.0
 22
0.0
 32
0.0
 14
29.068
 24
20.356
 34
0.0
 15
261.614
 25
183.204
 35
0.0
146
0.0
 13
0.0
 23
0.0
 33
0.0
 16
1.0
 26
0.0
 36
0.0
 17
0.0
 27
1.0
 37
0.0
 76
1
330
17
  0
LAYOUT
  5
1E
330
D
100
AcDbPlotSettings
  1

  2
DWG to PDF.pc3
  4
ezdxf_(297.00_x_420.00_MM)
  6

 40
0.0
 41
0.0
 42
0.0
 43
0.0
 44
297.0
 45
420.0
 46
0.0
 47
0.0
 48
0.0
 49
0.0
140
0.0
141
0.0
142
1.0
143
1.0
 70
0
 72
1
 73
0
 74
5
  7

 75
16
 76
0
 77
2
 78
300
147
1.0
148
0.0
149
0.0
100
AcDbLayout
  1
Layout1
 70
1
 71
1
 10
-0.0
 20
-0.0
 11
297.0
 21
420.0
 12
0.0
 22
0.0
 32
0.0
 14
1e+20
 24
1e+20
 34
1e+20
 15
-1e+20
 25
-1e+20
 35
-1e+20
146
0.0
 13
0.0
 23
0.0
 33
0.0
 16
1.0
 26
0.0
 36
0.0
 17
0.0
 27
1.0
 37
0.0
 76
1
330
1B
331
10F
  0
MATERIAL
  5
1F
102
{ACAD_REACTORS
330
E
102
}
330
E
100
AcDbMaterial
  1
ByBlock
  2

 70
0
 40
1.0
 71
1
 41
1.0
 91
-1023410177
 42
1.0
 72
1
  3

 73
1
 74
1
 75
1
 44
0.5
 73
0
 45
1.0
 46
1.0
 77
1
  4

 78
1
 79
1
170
1
 48
1.0
171
1
  6

172
1
173
1
174
1
140
1.0
141
1.0
175
1
  7

176
1
177
1
178
1
143
1.0
179
1
  8

270
1
271
1
272
1
145
1.0
146
1.0
273
1
  9

274
1
275
1
276
1
 42
1.0
 72
1
  3

 73
1
 74
1
 75
1
 94
63
  0
MATERIAL
  5
20
102
{ACAD_REACTORS
330
E
102
}
330
E
100
AcDbMaterial
  1
ByLayer
  2

 70
0
 40
1.0
 71
1
 41
1.0
 91
-1023410177
 42
1.0
 72
1
  3

 73
1
 74
1
 75
1
 44
0.5
 73
0
 45
1.0
 46
1.0
 77
1
  4

 78
1
 79
1
170
1
 48
1.0
171
1
  6

172
1
173
1
174
1
140
1.0
141
1.0
175
1
  7

176
1
177
1
178
1
143
1.0
179
1
  8

270
1
271
1
272
1
145
1.0
146
1.0
273
1
  9

274
1
275
1
276
1
 42
1.0
 72
1
  3

 73
1
 74
1
 75
1
 94
63
  0
MATERIAL
  5
21
102
{ACAD_REACTORS
330
E
102
}
330
E
100
AcDbMaterial
  1
Global
  2

 70
0
 40
1.0
 71
1
 41
1.0
 91
-1023410177
 42
1.0
 72
1
  3

 73
1
 74
1
 75
1
 44
0.5
 73
0
 45
1.0
 46
1.0
 77
1
  4

 78
1
 79
1
170
1
 48
1.0
171
1
  6

172
1
173
1
174
1
140
1.0
141
1.0
175
1
  7

176
1
177
1
178
1
143
1.0
179
1
  8

270
1
271
1
272
1
145
1.0
146
1.0
273
1
  9

274
1
275
1
276
1
 42
1.0
 72
1
  3

 73
1
 74
1
 75
1
 94
63
  0
MLINESTYLE
  5
22
102
{ACAD_REACTORS
330
10
102
}
330
10
100
AcDbMlineStyle
  2
Standard
 70
0
  3

 62
256
 51
90.0
 52
90.0
 71
2
 49
0.5
 62
256
  6
BYLAYER
 49
-0.5
 62
256
  6
BYLAYER
  0
MLEADERSTYLE
  5
2C
102
{ACAD_REACTORS
330
F
102
}
330
F
100
AcDbMLeaderStyle
179
2
170
2
171
1
172
0
 90
2
 40
0.0
 41
0.0
173
1
 91
-1056964608
 92
-2
290
1
 42
2.0
291
1
 43
8.0
  3
Standard
 44
4.0
300

342
29
174
1
175
1
176
0
178
1
 93
-1056964608
 45
4.0
292
0
297
0
 46
4.0
 94
-1056964608
 47
1.0
 49
0.0
140
1.0
294
1
141
0.0
177
0
142
1.0
295
0
296
0
143
3.75
271
0
272
9
272
9
  0
LAYOUT
  5
114
330
D
100
AcDbPlotSettings
  1

  2
DWG to PDF.pc3
  4
ezdxf_(297.00_x_420.00_MM)
  6

 40
0.0
 41
0.0
 42
0.0
 43
0.0
 44
297.0
 45
420.0
 46
0.0
 47
0.0
 48
0.0
 49
0.0
140
0.0
141
0.0
142
1.0
143
1.0
 70
0
 72
1
 73
0
 74
5
  7

 75
16
 76
0
 77
2
 78
300
147
1.0
148
0.0
149
0.0
100
AcDbLayout
  1
Plan 1-1
 70
1
 71
3
 10
-0.0
 20
-0.0
 11
297.0
 21
420.0
 12
0.0
 22
0.0
 32
0.0
 14
1e+20
 24
1e+20
 34
1e+20
 15
-1e+20
 25
-1e+20
 35
-1e+20
146
0.0
 13
0.0
 23
0.0
 33
0.0
 16
1.0
 26
0.0
 36
0.0
 17
0.0
 27
1.0
 37
0.0
 76
1
330
111
331
115
  0
LAYOUT
  5
11A
330
D
100
AcDbPlotSettings
  1

  2
DWG to PDF.pc3
  4
ezdxf_(297.00_x_420.00_MM)
  6

 40
0.0
 41
0.0
 42
0.0
 43
0.0
 44
297.0
 45
420.0
 46
0.0
 47
0.0
 48
0.0
 49
0.0
140
0.0
141
0.0
142
1.0
143
1.0
 70
0
 72
1
 73
0
 74
5
  7

 75
16
 76
0
 77
2
 78
300
147
1.0
148
0.0
149
0.0
100
AcDbLayout
  1
Plan 1-2
 70
1
 71
4
 10
-0.0
 20
-0.0
 11
297.0
 21
420.0
 12
0.0
 22
0.0
 32
0.0
 14
1e+20
 24
1e+20
 34
1e+20
 15
-1e+20
 25
-1e+20
 35
-1e+20
146
0.0
 13
0.0
 23
0.0
 33
0.0
 16
1.0
 26
0.0
 36
0.0
 17
0.0
 27
1.0
 37
0.0
 76
1
330
117
331
11B
  0
LAYOUT
  5
120
330
D
100
AcDbPlotSettings
  1

  2
DWG to PDF.pc3
  4
ezdxf_(297.00_x_420.00_MM)
  6

 40
0.0
 41
0.0
 42
0.0
 43
0.0
 44
297.0
 45
420.0
 46
0.0
 47
0.0
 48
0.0
 49
0.0
140
0.0
141
0.0
142
1.0
143
1.0
 70
0
 72
1
 73
0
 74
5
  7

 75
16
 76
0
 77
2
 78
300
147
1.0
148
0.0
149
0.0
100
AcDbLayout
  1
Plan 1-3
 70
1
 71
5
 10
-0.0
 20
-0.0
 11
297.0
 21
420.0
 12
0.0
 22
0.0
 32
0.0
 14
1e+20
 24
1e+20
 34
1e+20
 15
-1e+20
 25
-1e+20
 35
-1e+20
146
0.0
 13
0.0
 23
0.0
 33
0.0
 16
1.0
 26
0.0
 36
0.0
 17
0.0
 27
1.0
 37
0.0
 76
1
330
11D
331
121
  0
LAYOUT
  5
126
330
D
100
AcDbPlotSettings
  1

  2
DWG to PDF.pc3
  4
ezdxf_(297.00_x_420.00_MM)
  6

 40
0.0
 41
0.0
 42
0.0
 43
0.0
 44
297.0
 45
420.0
 46
0.0
 47
0.0
 48
0.0
 49
0.0
140
0.0
141
0.0
142
1.0
143
1.0
 70
0
 72
1
 73
0
 74
5
  7

 75
16
 76
0
 77
2
 78
300
147
1.0
148
0.0
149
0.0
100
AcDbLayout
  1
Plan 1-4
 70
1
 71
6
 10
-0.0
 20
-0.0
 11
297.0
 21
420.0
 12
0.0
 22
0.0
 32
0.0
 14
1e+20
 24
1e+20
 34
1e+20
 15
-1e+20
 25
-1e+20
 35
-1e+20
146
0.0
 13
0.0
 23
0.0
 33
0.0
 16
1.0
 26
0.0
 36
0.0
 17
0.0
 27
1.0
 37
0.0
 76
1
330
123
331
127
  0
LAYOUT
  5
12C
330
D
100
AcDbPlotSettings
  1

  2
DWG to PDF.pc3
  4
ezdxf_(297.00_x_420.00_MM)
  6

 40
0.0
 41
0.0
 42
0.0
 43
0.0
 44
297.0
 45
420.0
 46
0.0
 47
0.0
 48
0.0
 49
0.0
140
0.0
141
0.0
142
1.0
143
1.0
 70
0
 72
1
 73
0
 74
5
  7

 75
16
 76
0
 77
2
 78
300
147
1.0
148
0.0
149
0.0
100
AcDbLayout
  1
Plan 1-5
 70
1
 71
7
 10
-0.0
 20
-0.0
 11
297.0
 21
420.0
 12
0.0
 22
0.0
 32
0.0
 14
1e+20
 24
1e+20
 34
1e+20
 15
-1e+20
 25
-1e+20
 35
-1e+20
146
0.0
 13
0.0
 23
0.0
 33
0.0
 16
1.0
 26
0.0
 36
0.0
 17
0.0
 27
1.0
 37
0.0
 76
1
330
129
331
12D
  0
LAYOUT
  5
132
330
D
100
AcDbPlotSettings
  1

  2
DWG to PDF.pc3
  4
ezdxf_(297.00_x_420.00_MM)
  6

 40
0.0
 41
0.0
 42
0.0
 43
0.0
 44
297.0
 45
420.0
 46
0.0
 47
0.0
 48
0.0
 49
0.0
140
0.0
141
0.0
142
1.0
143
1.0
 70
0
 72
1
 73
0
 74
5
  7

 75
16
 76
0
 77
2
 78
300
147
1.0
148
0.0
149
0.0
100
AcDbLayout
  1
Plan 2-1
 70
1
 71
8
 10
-0.0
 20
-0.0
 11
297.0
 21
420.0
 12
0.0
 22
0.0
 32
0.0
 14
1e+20
 24
1e+20
 34
1e+20
 15
-1e+20
 25
-1e+20
 35
-1e+20
146
0.0
 13
0.0
 23
0.0
 33
0.0
 16
1.0
 26
0.0
 36
0.0
 17
0.0
 27
1.0
 37
0.0
 76
1
330
12F
331
133
  0
LAYOUT
  5
138
330
D
100
AcDbPlotSettings
  1

  2
DWG to PDF.pc3
  4
ezdxf_(297.00_x_420.00_MM)
  6

 40
0.0
 41
0.0
 42
0.0
 43
0.0
 44
297.0
 45
420.0
 46
0.0
 47
0.0
 48
0.0
 49
0.0
140
0.0
141
0.0
142
1.0
143
1.0
 70
0
 72
1
 73
0
 74
5
  7

 75
16
 76
0
 77
2
 78
300
147
1.0
148
0.0
149
0.0
100
AcDbLayout
  1
Plan 2-2
 70
1
 71
9
 10
-0.0
 20
-0.0
 11
297.0
 21
420.0
 12
0.0
 22
0.0
 32
0.0
 14
1e+20
 24
1e+20
 34
1e+20
 15
-1e+20
 25
-1e+20
 35
-1e+20
146
0.0
 13
0.0
 23
0.0
 33
0.0
 16
1.0
 26
0.0
 36
0.0
 17
0.0
 27
1.0
 37
0.0
 76
1
330
135
331
139
  0
LAYOUT
  5
13E
330
D
100
AcDbPlotSettings
  1

  2
DWG to PDF.pc3
  4
ezdxf_(297.00_x_420.00_MM)
  6

 40
0.0
 41
0.0
 42
0.0
 43
0.0
 44
297.0
 45
420.0
 46
0.0
 47
0.0
 48
0.0
 49
0.0
140
0.0
141
0.0
142
1.0
143
1.0
 70
0
 72
1
 73
0
 74
5
  7

 75
16
 76
0
 77
2
 78
300
147
1.0
148
0.0
149
0.0
100
AcDbLayout
  1
Plan 2-3
 70
1
 71
10
 10
-0.0
 20
-0.0
 11
297.0
 21
420.0
 12
0.0
 22
0.0
 32
0.0
 14
1e+20
 24
1e+20
 34
1e+20
 15
-1e+20
 25
-1e+20
 35
-1e+20
146
0.0
 13
0.0
 23
0.0
 33
0.0
 16
1.0
 26
0.0
 36
0.0
 17
0.0
 27
1.0
 37
0.0
 76
1
330
13B
331
13F
  0
LAYOUT
  5
144
330
D
100
AcDbPlotSettings
  1

  2
DWG to PDF.pc3
  4
ezdxf_(297.00_x_420.00_MM)
  6

 40
0.0
 41
0.0
 42
0.0
 43
0.0
 44
297.0
 45
420.0
 46
0.0
 47
0.0
 48
0.0
 49
0.0
140
0.0
141
0.0
142
1.0
143
1.0
 70
0
 72
1
 73
0
 74
5
  7

 75
16
 76
0
 77
2
 78
300
147
1.0
148
0.0
149
0.0
100
AcDbLayout
  1
Plan 2-4
 70
1
 71
11
 10
-0.0
 20
-0.0
 11
297.0
 21
420.0
 12
0.0
 22
0.0
 32
0.0
 14
1e+20
 24
1e+20
 34
1e+20
 15
-1e+20
 25
-1e+20
 35
-1e+20
146
0.0
 13
0.0
 23
0.0
 33
0.0
 16
1.0
 26
0.0
 36
0.0
 17
0.0
 27
1.0
 37
0.0
 76
1
330
141
331
145
  0
LAYOUT
  5
14A
330
D
100
AcDbPlotSettings
  1

  2
DWG to PDF.pc3
  4
ezdxf_(297.00_x_420.00_MM)
  6

 40
0.0
 41
0.0
 42
0.0
 43
0.0
 44
297.0
 45
420.0
 46
0.0
 47
0.0
 48
0.0
 49
0.0
140
0.0
141
0.0
142
1.0
143
1.0
 70
0
 72
1
 73
0
 74
5
  7

 75
16
 76
0
 77
2
 78
300
147
1.0
148
0.0
149
0.0
100
AcDbLayout
  1
Plan 2-5
 70
1
 71
12
 10
-0.0
 20
-0.0
 11
297.0
 21
420.0
 12
0.0
 22
0.0
 32
0.0
 14
1e+20
 24
1e+20
 34
1e+20
 15
-1e+20
 25
-1e+20
 35
-1e+20
146
0.0
 13
0.0
 23
0.0
 33
0.0
 16
1.0
 26
0.0
 36
0.0
 17
0.0
 27
1.0
 37
0.0
 76
1
330
147
331
14B
  0
LAYOUT
  5
150
330
D
100
AcDbPlotSettings
  1

  2
DWG to PDF.pc3
  4
ezdxf_(297.00_x_420.00_MM)
  6

 40
0.0
 41
0.0
 42
0.0
 43
0.0
 44
297.0
 45
420.0
 46
0.0
 47
0.0
 48
0.0
 49
0.0
140
0.0
141
0.0
142
1.0
143
1.0
 70
0
 72
1
 73
0
 74
5
  7

 75
16
 76
0
 77
2
 78
300
147
1.0
148
0.0
149
0.0
100
AcDbLayout
  1
Plan 3-1
 70
1
 71
13
 10
-0.0
 20
-0.0
 11
297.0
 21
420.0
 12
0.0
 22
0.0
 32
0.0
 14
1e+20
 24
1e+20
 34
1e+20
 15
-1e+20
 25
-1e+20
 35
-1e+20
146
0.0
 13
0.0
 23
0.0
 33
0.0
 16
1.0
 26
0.0
 36
0.0
 17
0.0
 27
1.0
 37
0.0
 76
1
330
14D
331
151
  0
LAYOUT
  5
156
330
D
100
AcDbPlotSettings
  1

  2
DWG to PDF.pc3
  4
ezdxf_(297.00_x_420.00_MM)
  6

 40
0.0
 41
0.0
 42
0.0
 43
0.0
 44
297.0
 45
420.0
 46
0.0
 47
0.0
 48
0.0
 49
0.0
140
0.0
141
0.0
142
1.0
143
1.0
 70
0
 72
1
 73
0
 74
5
  7

 75
16
 76
0
 77
2
 78
300
147
1.0
148
0.0
149
0.0
100
AcDbLayout
  1
Plan 3-2
 70
1
 71
14
 10
-0.0
 20
-0.0
 11
297.0
 21
420.0
 12
0.0
 22
0.0
 32
0.0
 14
1e+20
 24
1e+20
 34
1e+20
 15
-1e+20
 25
-1e+20
 35
-1e+20
146
0.0
 13
0.0
 23
0.0
 33
0.0
 16
1.0
 26
0.0
 36
0.0
 17
0.0
 27
1.0
 37
0.0
 76
1
330
153
331
157
  0
LAYOUT
  5
15C
330
D
100
AcDbPlotSettings
  1

  2
DWG to PDF.pc3
  4
ezdxf_(297.00_x_420.00_MM)
  6

 40
0.0
 41
0.0
 42
0.0
 43
0.0
 44
297.0
 45
420.0
 46
0.0
 47
0.0
 48
0.0
 49
0.0
140
0.0
141
0.0
142
1.0
143
1.0
 70
0
 72
1
 73
0
 74
5
  7

 75
16
 76
0
 77
2
 78
300
147
1.0
148
0.0
149
0.0
100
AcDbLayout
  1
Plan 3-3
 70
1
 71
15
 10
-0.0
 20
-0.0
 11
297.0
 21
420.0
 12
0.0
 22
0.0
 32
0.0
 14
1e+20
 24
1e+20
 34
1e+20
 15
-1e+20
 25
-1e+20
 35
-1e+20
146
0.0
 13
0.0
 23
0.0
 33
0.0
 16
1.0
 26
0.0
 36
0.0
 17
0.0
 27
1.0
 37
0.0
 76
1
330
159
331
15D
  0
LAYOUT
  5
162
330
D
100
AcDbPlotSettings
  1

  2
DWG to PDF.pc3
  4
ezdxf_(297.00_x_420.00_MM)
  6

 40
0.0
 41
0.0
 42
0.0
 43
0.0
 44
297.0
 45
420.0
 46
0.0
 47
0.0
 48
0.0
 49
0.0
140
0.0
141
0.0
142
1.0
143
1.0
 70
0
 72
1
 73
0
 74
5
  7

 75
16
 76
0
 77
2
 78
300
147
1.0
148
0.0
149
0.0
100
AcDbLayout
  1
Plan 3-4
 70
1
 71
16
 10
-0.0
 20
-0.0
 11
297.0
 21
420.0
 12
0.0
 22
0.0
 32
0.0
 14
1e+20
 24
1e+20
 34
1e+20
 15
-1e+20
 25
-1e+20
 35
-1e+20
146
0.0
 13
0.0
 23
0.0
 33
0.0
 16
1.0
 26
0.0
 36
0.0
 17
0.0
 27
1.0
 37
0.0
 76
1
330
15F
331
163
  0
LAYOUT
  5
168
330
D
100
AcDbPlotSettings
  1

  2
DWG to PDF.pc3
  4
ezdxf_(297.00_x_420.00_MM)
  6

 40
0.0
 41
0.0
 42
0.0
 43
0.0
 44
297.0
 45
420.0
 46
0.0
 47
0.0
 48
0.0
 49
0.0
140
0.0
141
0.0
142
1.0
143
1.0
 70
0
 72
1
 73
0
 74
5
  7

 75
16
 76
0
 77
2
 78
300
147
1.0
148
0.0
149
0.0
100
AcDbLayout
  1
Plan 3-5
 70
1
 71
17
 10
-0.0
 20
-0.0
 11
297.0
 21
420.0
 12
0.0
 22
0.0
 32
0.0
 14
1e+20
 24
1e+20
 34
1e+20
 15
-1e+20
 25
-1e+20
 35
-1e+20
146
0.0
 13
0.0
 23
0.0
 33
0.0
 16
1.0
 26
0.0
 36
0.0
 17
0.0
 27
1.0
 37
0.0
 76
1
330
165
331
169
  0
LAYOUT
  5
16E
330
D
100
AcDbPlotSettings
  1

  2
DWG to PDF.pc3
  4
ezdxf_(297.00_x_420.00_MM)
  6

 40
0.0
 41
0.0
 42
0.0
 43
0.0
 44
297.0
 45
420.0
 46
0.0
 47
0.0
 48
0.0
 49
0.0
140
0.0
141
0.0
142
1.0
143
1.0
 70
0
 72
1
 73
0
 74
5
  7

 75
16
 76
0
 77
2
 78
300
147
1.0
148
0.0
149
0.0
100
AcDbLayout
  1
Plan 4-1
 70
1
 71
18
 10
-0.0
 20
-0.0
 11
297.0
 21
420.0
 12
0.0
 22
0.0
 32
0.0
 14
1e+20
 24
1e+20
 34
1e+20
 15
-1e+20
 25
-1e+20
 35
-1e+20
146
0.0
 13
0.0
 23
0.0
 33
0.0
 16
1.0
 26
0.0
 36
0.0
 17
0.0
 27
1.0
 37
0.0
 76
1
330
16B
331
16F
  0
LAYOUT
  5
174
330
D
100
AcDbPlotSettings
  1

  2
DWG to PDF.pc3
  4
ezdxf_(297.00_x_420.00_MM)
  6

 40
0.0
 41
0.0
 42
0.0
 43
0.0
 44
297.0
 45
420.0
 46
0.0
 47
0.0
 48
0.0
 49
0.0
140
0.0
141
0.0
142
1.0
143
1.0
 70
0
 72
1
 73
0
 74
5
  7

 75
16
 76
0
 77
2
 78
300
147
1.0
148
0.0
149
0.0
100
AcDbLayout
  1
Plan 4-2
 70
1
 71
19
 10
-0.0
 20
-0.0
 11
297.0
 21
420.0
 12
0.0
 22
0.0
 32
0.0
 14
1e+20
 24
1e+20
 34
1e+20
 15
-1e+20
 25
-1e+20
 35
-1e+20
146
0.0
 13
0.0
 23
0.0
 33
0.0
 16
1.0
 26
0.0
 36
0.0
 17
0.0
 27
1.0
 37
0.0
 76
1
330
171
331
175
  0
LAYOUT
  5
17A
330
D
100
AcDbPlotSettings
  1

  2
DWG to PDF.pc3
  4
ezdxf_(297.00_x_420.00_MM)
  6

 40
0.0
 41
0.0
 42
0.0
 43
0.0
 44
297.0
 45
420.0
 46
0.0
 47
0.0
 48
0.0
 49
0.0
140
0.0
141
0.0
142
1.0
143
1.0
 70
0
 72
1
 73
0
 74
5
  7

 75
16
 76
0
 77
2
 78
300
147
1.0
148
0.0
149
0.0
100
AcDbLayout
  1
Plan 4-3
 70
1
 71
20
 10
-0.0
 20
-0.0
 11
297.0
 21
420.0
 12
0.0
 22
0.0
 32
0.0
 14
1e+20
 24
1e+20
 34
1e+20
 15
-1e+20
 25
-1e+20
 35
-1e+20
146
0.0
 13
0.0
 23
0.0
 33
0.0
 16
1.0
 26
0.0
 36
0.0
 17
0.0
 27
1.0
 37
0.0
 76
1
330
177
331
17B
  0
LAYOUT
  5
180
330
D
100
AcDbPlotSettings
  1

  2
DWG to PDF.pc3
  4
ezdxf_(297.00_x_420.00_MM)
  6

 40
0.0
 41
0.0
 42
0.0
 43
0.0
 44
297.0
 45
420.0
 46
0.0
 47
0.0
 48
0.0
 49
0.0
140
0.0
141
0.0
142
1.0
143
1.0
 70
0
 72
1
 73
0
 74
5
  7

 75
16
 76
0
 77
2
 78
300
147
1.0
148
0.0
149
0.0
100
AcDbLayout
  1
Plan 4-4
 70
1
 71
21
 10
-0.0
 20
-0.0
 11
297.0
 21
420.0
 12
0.0
 22
0.0
 32
0.0
 14
1e+20
 24
1e+20
 34
1e+20
 15
-1e+20
 25
-1e+20
 35
-1e+20
146
0.0
 13
0.0
 23
0.0
 33
0.0
 16
1.0
 26
0.0
 36
0.0
 17
0.0
 27
1.0
 37
0.0
 76
1
330
17D
331
181
  0
LAYOUT
  5
186
330
D
100
AcDbPlotSettings
  1

  2
DWG to PDF.pc3
  4
ezdxf_(297.00_x_420.00_MM)
  6

 40
0.0
 41
0.0
 42
0.0
 43
0.0
 44
297.0
 45
420.0
 46
0.0
 47
0.0
 48
0.0
 49
0.0
140
0.0
141
0.0
142
1.0
143
1.0
 70
0
 72
1
 73
0
 74
5
  7

 75
16
 76
0
 77
2
 78
300
147
1.0
148
0.0
149
0.0
100
AcDbLayout
  1
Plan 4-5
 70
1
 71
22
 10
-0.0
 20
-0.0
 11
297.0
 21
420.0
 12
0.0
 22
0.0
 32
0.0
 14
1e+20
 24
1e+20
 34
1e+20
 15
-1e+20
 25
-1e+20
 35
-1e+20
146
0.0
 13
0.0
 23
0.0
 33
0.0
 16
1.0
 26
0.0
 36
0.0
 17
0.0
 27
1.0
 37
0.0
 76
1
330
183
331
187
  0
LAYOUT
  5
18C
330
D
100
AcDbPlotSettings
  1

  2
DWG to PDF.pc3
  4
ezdxf_(297.00_x_420.00_MM)
  6

 40
0.0
 41
0.0
 42
0.0
 43
0.0
 44
297.0
 45
420.0
 46
0.0
 47
0.0
 48
0.0
 49
0.0
140
0.0
141
0.0
142
1.0
143
1.0
 70
0
 72
1
 73
0
 74
5
  7

 75
16
 76
0
 77
2
 78
300
147
1.0
148
0.0
149
0.0
100
AcDbLayout
  1
Plan 5-1
 70
1
 71
23
 10
-0.0
 20
-0.0
 11
297.0
 21
420.0
 12
0.0
 22
0.0
 32
0.0
 14
1e+20
 24
1e+20
 34
1e+20
 15
-1e+20
 25
-1e+20
 35
-1e+20
146
0.0
 13
0.0
 23
0.0
 33
0.0
 16
1.0
 26
0.0
 36
0.0
 17
0.0
 27
1.0
 37
0.0
 76
1
330
189
331
18D
  0
LAYOUT
  5
192
330
D
100
AcDbPlotSettings
  1

  2
DWG to PDF.pc3
  4
ezdxf_(297.00_x_420.00_MM)
  6

 40
0.0
 41
0.0
 42
0.0
 43
0.0
 44
297.0
 45
420.0
 46
0.0
 47
0.0
 48
0.0
 49
0.0
140
0.0
141
0.0
142
1.0
143
1.0
 70
0
 72
1
 73
0
 74
5
  7

 75
16
 76
0
 77
2
 78
300
147
1.0
148
0.0
149
0.0
100
AcDbLayout
  1
Plan 5-2
 70
1
 71
24
 10
-0.0
 20
-0.0
 11
297.0
 21
420.0
 12
0.0
 22
0.0
 32
0.0
 14
1e+20
 24
1e+20
 34
1e+20
 15
-1e+20
 25
-1e+20
 35
-1e+20
146
0.0
 13
0.0
 23
0.0
 33
0.0
 16
1.0
 26
0.0
 36
0.0
 17
0.0
 27
1.0
 37
0.0
 76
1
330
18F
331
193
  0
LAYOUT
  5
198
330
D
100
AcDbPlotSettings
  1

  2
DWG to PDF.pc3
  4
ezdxf_(297.00_x_420.00_MM)
  6

 40
0.0
 41
0.0
 42
0.0
 43
0.0
 44
297.0
 45
420.0
 46
0.0
 47
0.0
 48
0.0
 49
0.0
140
0.0
141
0.0
142
1.0
143
1.0
 70
0
 72
1
 73
0
 74
5
  7

 75
16
 76
0
 77
2
 78
300
147
1.0
148
0.0
149
0.0
100
AcDbLayout
  1
Plan 5-3
 70
1
 71
25
 10
-0.0
 20
-0.0
 11
297.0
 21
420.0
 12
0.0
 22
0.0
 32
0.0
 14
1e+20
 24
1e+20
 34
1e+20
 15
-1e+20
 25
-1e+20
 35
-1e+20
146
0.0
 13
0.0
 23
0.0
 33
0.0
 16
1.0
 26
0.0
 36
0.0
 17
0.0
 27
1.0
 37
0.0
 76
1
330
195
331
199
  0
LAYOUT
  5
19E
330
D
100
AcDbPlotSettings
  1

  2
DWG to PDF.pc3
  4
ezdxf_(297.00_x_420.00_MM)
  6

 40
0.0
 41
0.0
 42
0.0
 43
0.0
 44
297.0
 45
420.0
 46
0.0
 47
0.0
 48
0.0
 49
0.0
140
0.0
141
0.0
142
1.0
143
1.0
 70
0
 72
1
 73
0
 74
5
  7

 75
16
 76
0
 77
2
 78
300
147
1.0
148
0.0
149
0.0
100
AcDbLayout
  1
Plan 5-4
 70
1
 71
26
 10
-0.0
 20
-0.0
 11
297.0
 21
420.0
 12
0.0
 22
0.0
 32
0.0
 14
1e+20
 24
1e+20
 34
1e+20
 15
-1e+20
 25
-1e+20
 35
-1e+20
146
0.0
 13
0.0
 23
0.0
 33
0.0
 16
1.0
 26
0.0
 36
0.0
 17
0.0
 27
1.0
 37
0.0
 76
1
330
19B
331
19F
  0
LAYOUT
  5
1A4
330
D
100
AcDbPlotSettings
  1

  2
DWG to PDF.pc3
  4
ezdxf_(297.00_x_420.00_MM)
  6

 40
0.0
 41
0.0
 42
0.0
 43
0.0
 44
297.0
 45
420.0
 46
0.0
 47
0.0
 48
0.0
 49
0.0
140
0.0
141
0.0
142
1.0
143
1.0
 70
0
 72
1
 73
0
 74
5
  7

 75
16
 76
0
 77
2
 78
300
147
1.0
148
0.0
149
0.0
100
AcDbLayout
  1
Plan 5-5
 70
1
 71
27
 10
-0.0
 20
-0.0
 11
297.0
 21
420.0
 12
0.0
 22
0.0
 32
0.0
 14
1e+20
 24
1e+20
 34
1e+20
 15
-1e+20
 25
-1e+20
 35
-1e+20
146
0.0
 13
0.0
 23
0.0
 33
0.0
 16
1.0
 26
0.0
 36
0.0
 17
0.0
 27
1.0
 37
0.0
 76
1
330
1A1
331
1A5
  0
ENDSEC
  0
EOF
