0
SECTION
2
HEADER
9
$EXTMAX
10
    -670.000
20
   -3630.000
9
$EXTMIN
10
    7000.000
20
     120.000
0
ENDSEC
0
SECTION
2
ENTITIES
0
LINE
8
default
6
CONTINUOUS
10
     -620.0000
20
      135.0000
11
      620.0000
21
      135.0000
39
 0
62
  9
 0
LINE
8
default
6
CONTINUOUS
10
     -620.0000
20
      135.0000
11
     -620.0000
21
     -776.0000
39
 0
62
  9
 0
LINE
8
default
6
CONTINUOUS
10
      620.0000
20
     -776.0000
11
      620.0000
21
      135.0000
39
 0
62
  9
 0
LINE
8
default
6
CONTINUOUS
10
     -620.0000
20
     -776.0000
11
      620.0000
21
     -776.0000
39
 0
62
  9
 0
LINE
8
default
6
CONTINUOUS
10
        0.0000
20
       -0.0000
11
      481.5781
21
     -281.8627
39
 0
62
 53
 0
LINE
8
default
6
CONTINUOUS
10
       -0.0000
20
       -0.0000
11
     -481.5781
21
     -281.8627
39
 0
62
 53
 0
LINE
8
default
6
CONTINUOUS
10
        0.0000
20
       -0.0000
11
        2.6500
21
       -1.3657
39
 0
62
  7
 0
LINE
8
default
6
CONTINUOUS
10
       -0.0000
20
       -0.0000
11
       -2.6500
21
       -1.3657
39
 0
62
  7
 0
LINE
8
default
6
CONTINUOUS
10
        2.6500
20
       -1.3657
11
        5.2986
21
       -2.7343
39
 0
62
  7
 0
LINE
8
default
6
CONTINUOUS
10
       -2.6500
20
       -1.3657
11
       -5.2986
21
       -2.7343
39
 0
62
  7
 0
LINE
8
default
6
CONTINUOUS
10
        5.2986
20
       -2.7343
11
        7.9456
21
       -4.1058
39
 0
62
  7
 0
LINE
8
default
6
CONTINUOUS
10
       -5.2986
20
       -2.7343
11
       -7.9456
21
       -4.1058
39
 0
62
  7
 0
LINE
8
default
6
CONTINUOUS
10
        7.9456
20
       -4.1058
11
       10.5912
21
       -5.4803
39
 0
62
  7
 0
LINE
8
default
6
CONTINUOUS
10
       -7.9456
20
       -4.1058
11
      -10.5912
21
       -5.4803
39
 0
62
  7
 0
LINE
8
default
6
CONTINUOUS
10
       10.5912
20
       -5.4803
11
       13.2352
21
       -6.8576
39
 0
62
  7
 0
LINE
8
default
6
CONTINUOUS
10
      -10.5912
20
       -5.4803
11
      -13.2352
21
       -6.8576
39
 0
62
  7
 0
LINE
8
default
6
CONTINUOUS
10
       13.2352
20
       -6.8576
11
       15.8777
21
       -8.2378
39
 0
62
  7
 0
LINE
8
default
6
CONTINUOUS
10
      -13.2352
20
       -6.8576
11
      -15.8777
21
       -8.2378
39
 0
62
  7
 0
LINE
8
default
6
CONTINUOUS
10
       15.8777
20
       -8.2378
11
       18.5187
21
       -9.6209
39
 0
62
  7
 0
LINE
8
default
6
CONTINUOUS
10
      -15.8777
20
       -8.2378
11
      -18.5187
21
       -9.6209
39
 0
62
  7
 0
LINE
8
default
6
CONTINUOUS
10
       18.5187
20
       -9.6209
11
       21.1582
21
      -11.0069
39
 0
62
  7
 0
LINE
8
default
6
CONTINUOUS
10
      -18.5187
20
       -9.6209
11
      -21.1582
21
      -11.0069
39
 0
62
  7
 0
LINE
8
default
6
CONTINUOUS
10
       21.1582
20
      -11.0069
11
       23.7962
21
      -12.3958
39
 0
62
  7
 0
LINE
8
default
6
CONTINUOUS
10
      -21.1582
20
      -11.0069
11
      -23.7962
21
      -12.3958
39
 0
62
  7
 0
LINE
8
default
6
CONTINUOUS
10
       23.7962
20
      -12.3958
11
       26.4327
21
      -13.7875
39
 0
62
  7
 0
LINE
8
default
6
CONTINUOUS
10
      -23.7962
20
      -12.3958
11
      -26.4327
21
      -13.7875
39
 0
62
  7
 0
LINE
8
default
6
CONTINUOUS
10
       26.4327
20
      -13.7875
11
       29.0676
21
      -15.1822
39
 0
62
  7
 0
LINE
8
default
6
CONTINUOUS
10
      -26.4327
20
      -13.7875
11
      -29.0676
21
      -15.1822
39
 0
62
  7
 0
LINE
8
default
6
CONTINUOUS
10
       29.0676
20
      -15.1822
11
       31.7010
21
      -16.5798
39
 0
62
  7
 0
LINE
8
default
6
CONTINUOUS
10
      -29.0676
20
      -15.1822
11
      -31.7010
21
      -16.5798
39
 0
62
  7
 0
LINE
8
default
6
CONTINUOUS
10
       31.7010
20
      -16.5798
11
       34.3328
21
      -17.9802
39
 0
62
  7
 0
LINE
8
default
6
CONTINUOUS
10
      -31.7010
20
      -16.5798
11
      -34.3328
21
      -17.9802
39
 0
62
  7
 0
LINE
8
default
6
CONTINUOUS
10
       34.3328
20
      -17.9802
11
       36.9632
21
      -19.3835
39
 0
62
  7
 0
LINE
8
default
6
CONTINUOUS
10
      -34.3328
20
      -17.9802
11
      -36.9632
21
      -19.3835
39
 0
62
  7
 0
LINE
8
default
6
CONTINUOUS
10
       36.9632
20
      -19.3835
11
       39.5919
21
      -20.7897
39
 0
62
  7
 0
LINE
8
default
6
CONTINUOUS
10
      -36.9632
20
      -19.3835
11
      -39.5919
21
      -20.7897
39
 0
62
  7
 0
LINE
8
default
6
CONTINUOUS
10
       39.5919
20
      -20.7897
11
       42.2192
21
      -22.1988
39
 0
62
  7
 0
LINE
8
default
6
CONTINUOUS
10
      -39.5919
20
      -20.7897
11
      -42.2192
21
      -22.1988
39
 0
62
  7
 0
LINE
8
default
6
CONTINUOUS
10
       42.2192
20
      -22.1988
11
       44.8449
21
      -23.6107
39
 0
62
  7
 0
LINE
8
default
6
CONTINUOUS
10
      -42.2192
20
      -22.1988
11
      -44.8449
21
      -23.6107
39
 0
62
  7
 0
LINE
8
default
6
CONTINUOUS
10
       44.8449
20
      -23.6107
11
       47.4690
21
      -25.0255
39
 0
62
  7
 0
LINE
8
default
6
CONTINUOUS
10
      -44.8449
20
      -23.6107
11
      -47.4690
21
      -25.0255
39
 0
62
  7
 0
LINE
8
default
6
CONTINUOUS
10
       47.4690
20
      -25.0255
11
       50.0916
21
      -26.4432
39
 0
62
  7
 0
LINE
8
default
6
CONTINUOUS
10
      -47.4690
20
      -25.0255
11
      -50.0916
21
      -26.4432
39
 0
62
  7
 0
LINE
8
default
6
CONTINUOUS
10
       50.0916
20
      -26.4432
11
       52.7127
21
      -27.8638
39
 0
62
  7
 0
LINE
8
default
6
CONTINUOUS
10
      -50.0916
20
      -26.4432
11
      -52.7127
21
      -27.8638
39
 0
62
  7
 0
LINE
8
default
6
CONTINUOUS
10
       52.7127
20
      -27.8638
11
       55.3322
21
      -29.2873
39
 0
62
  7
 0
LINE
8
default
6
CONTINUOUS
10
      -52.7127
20
      -27.8638
11
      -55.3322
21
      -29.2873
39
 0
62
  7
 0
LINE
8
default
6
CONTINUOUS
10
       55.3322
20
      -29.2873
11
       57.9501
21
      -30.7136
39
 0
62
  7
 0
LINE
8
default
6
CONTINUOUS
10
      -55.3322
20
      -29.2873
11
      -57.9501
21
      -30.7136
39
 0
62
  7
 0
LINE
8
default
6
CONTINUOUS
10
       57.9501
20
      -30.7136
11
       60.5665
21
      -32.1427
39
 0
62
  7
 0
LINE
8
default
6
CONTINUOUS
10
      -57.9501
20
      -30.7136
11
      -60.5665
21
      -32.1427
39
 0
62
  7
 0
LINE
8
default
6
CONTINUOUS
10
       60.5665
20
      -32.1427
11
       63.1813
21
      -33.5748
39
 0
62
  7
 0
LINE
8
default
6
CONTINUOUS
10
      -60.5665
20
      -32.1427
11
      -63.1813
21
      -33.5748
39
 0
62
  7
 0
LINE
8
default
6
CONTINUOUS
10
       63.1813
20
      -33.5748
11
       65.7945
21
      -35.0097
39
 0
62
  7
 0
LINE
8
default
6
CONTINUOUS
10
      -63.1813
20
      -33.5748
11
      -65.7945
21
      -35.0097
39
 0
62
  7
 0
LINE
8
default
6
CONTINUOUS
10
       65.7945
20
      -35.0097
11
       68.4061
21
      -36.4475
39
 0
62
  7
 0
LINE
8
default
6
CONTINUOUS
10
      -65.7945
20
      -35.0097
11
      -68.4061
21
      -36.4475
39
 0
62
  7
 0
LINE
8
default
6
CONTINUOUS
10
       68.4061
20
      -36.4475
11
       71.0162
21
      -37.8881
39
 0
62
  7
 0
LINE
8
default
6
CONTINUOUS
10
      -68.4061
20
      -36.4475
11
      -71.0162
21
      -37.8881
39
 0
62
  7
 0
LINE
8
default
6
CONTINUOUS
10
       71.0162
20
      -37.8881
11
       73.6247
21
      -39.3316
39
 0
62
  7
 0
LINE
8
default
6
CONTINUOUS
10
      -71.0162
20
      -37.8881
11
      -73.6247
21
      -39.3316
39
 0
62
  7
 0
LINE
8
default
6
CONTINUOUS
10
       73.6247
20
      -39.3316
11
       76.2316
21
      -40.7779
39
 0
62
  7
 0
LINE
8
default
6
CONTINUOUS
10
      -73.6247
20
      -39.3316
11
      -76.2316
21
      -40.7779
39
 0
62
  7
 0
LINE
8
default
6
CONTINUOUS
10
       76.2316
20
      -40.7779
11
       78.8370
21
      -42.2271
39
 0
62
  7
 0
LINE
8
default
6
CONTINUOUS
10
      -76.2316
20
      -40.7779
11
      -78.8370
21
      -42.2271
39
 0
62
  7
 0
LINE
8
default
6
CONTINUOUS
10
       78.8370
20
      -42.2271
11
       81.4407
21
      -43.6792
39
 0
62
  7
 0
LINE
8
default
6
CONTINUOUS
10
      -78.8370
20
      -42.2271
11
      -81.4407
21
      -43.6792
39
 0
62
  7
 0
LINE
8
default
6
CONTINUOUS
10
       81.4407
20
      -43.6792
11
       84.0428
21
      -45.1341
39
 0
62
  7
 0
LINE
8
default
6
CONTINUOUS
10
      -81.4407
20
      -43.6792
11
      -84.0428
21
      -45.1341
39
 0
62
  7
 0
LINE
8
default
6
CONTINUOUS
10
       84.0428
20
      -45.1341
11
       86.6434
21
      -46.5918
39
 0
62
  7
 0
LINE
8
default
6
CONTINUOUS
10
      -84.0428
20
      -45.1341
11
      -86.6434
21
      -46.5918
39
 0
62
  7
 0
LINE
8
default
6
CONTINUOUS
10
       86.6434
20
      -46.5918
11
       89.2423
21
      -48.0524
39
 0
62
  7
 0
LINE
8
default
6
CONTINUOUS
10
      -86.6434
20
      -46.5918
11
      -89.2423
21
      -48.0524
39
 0
62
  7
 0
LINE
8
default
6
CONTINUOUS
10
       89.2423
20
      -48.0524
11
       91.8397
21
      -49.5159
39
 0
62
  7
 0
LINE
8
default
6
CONTINUOUS
10
      -89.2423
20
      -48.0524
11
      -91.8397
21
      -49.5159
39
 0
62
  7
 0
LINE
8
default
6
CONTINUOUS
10
       91.8397
20
      -49.5159
11
       94.4354
21
      -50.9821
39
 0
62
  7
 0
LINE
8
default
6
CONTINUOUS
10
      -91.8397
20
      -49.5159
11
      -94.4354
21
      -50.9821
39
 0
62
  7
 0
LINE
8
default
6
CONTINUOUS
10
       94.4354
20
      -50.9821
11
       97.0296
21
      -52.4513
39
 0
62
  7
 0
LINE
8
default
6
CONTINUOUS
10
      -94.4354
20
      -50.9821
11
      -97.0296
21
      -52.4513
39
 0
62
  7
 0
LINE
8
default
6
CONTINUOUS
10
       97.0296
20
      -52.4513
11
       99.6221
21
      -53.9232
39
 0
62
  7
 0
LINE
8
default
6
CONTINUOUS
10
      -97.0296
20
      -52.4513
11
      -99.6221
21
      -53.9232
39
 0
62
  7
 0
LINE
8
default
6
CONTINUOUS
10
       99.6221
20
      -53.9232
11
      102.2130
21
      -55.3981
39
 0
62
  7
 0
LINE
8
default
6
CONTINUOUS
10
      -99.6221
20
      -53.9232
11
     -102.2130
21
      -55.3981
39
 0
62
  7
 0
LINE
8
default
6
CONTINUOUS
10
      102.2130
20
      -55.3981
11
      104.8023
21
      -56.8757
39
 0
62
  7
 0
LINE
8
default
6
CONTINUOUS
10
     -102.2130
20
      -55.3981
11
     -104.8023
21
      -56.8757
39
 0
62
  7
 0
LINE
8
default
6
CONTINUOUS
10
      104.8023
20
      -56.8757
11
      107.3900
21
      -58.3562
39
 0
62
  7
 0
LINE
8
default
6
CONTINUOUS
10
     -104.8023
20
      -56.8757
11
     -107.3900
21
      -58.3562
39
 0
62
  7
 0
LINE
8
default
6
CONTINUOUS
10
      107.3900
20
      -58.3562
11
      109.9760
21
      -59.8395
39
 0
62
  7
 0
LINE
8
default
6
CONTINUOUS
10
     -107.3900
20
      -58.3562
11
     -109.9760
21
      -59.8395
39
 0
62
  7
 0
LINE
8
default
6
CONTINUOUS
10
      109.9760
20
      -59.8395
11
      112.5605
21
      -61.3257
39
 0
62
  7
 0
LINE
8
default
6
CONTINUOUS
10
     -109.9760
20
      -59.8395
11
     -112.5605
21
      -61.3257
39
 0
62
  7
 0
LINE
8
default
6
CONTINUOUS
10
      112.5605
20
      -61.3257
11
      115.1433
21
      -62.8146
39
 0
62
  7
 0
LINE
8
default
6
CONTINUOUS
10
     -112.5605
20
      -61.3257
11
     -115.1433
21
      -62.8146
39
 0
62
  7
 0
LINE
8
default
6
CONTINUOUS
10
      115.1433
20
      -62.8146
11
      117.7244
21
      -64.3064
39
 0
62
  7
 0
LINE
8
default
6
CONTINUOUS
10
     -115.1433
20
      -62.8146
11
     -117.7244
21
      -64.3064
39
 0
62
  7
 0
LINE
8
default
6
CONTINUOUS
10
      117.7244
20
      -64.3064
11
      120.3040
21
      -65.8011
39
 0
62
  7
 0
LINE
8
default
6
CONTINUOUS
10
     -117.7244
20
      -64.3064
11
     -120.3040
21
      -65.8011
39
 0
62
  7
 0
LINE
8
default
6
CONTINUOUS
10
      120.3040
20
      -65.8011
11
      122.8818
21
      -67.2985
39
 0
62
  7
 0
LINE
8
default
6
CONTINUOUS
10
     -120.3040
20
      -65.8011
11
     -122.8818
21
      -67.2985
39
 0
62
  7
 0
LINE
8
default
6
CONTINUOUS
10
      122.8818
20
      -67.2985
11
      125.4581
21
      -68.7988
39
 0
62
  7
 0
LINE
8
default
6
CONTINUOUS
10
     -122.8818
20
      -67.2985
11
     -125.4581
21
      -68.7988
39
 0
62
  7
 0
LINE
8
default
6
CONTINUOUS
10
      125.4581
20
      -68.7988
11
      128.0327
21
      -70.3019
39
 0
62
  7
 0
LINE
8
default
6
CONTINUOUS
10
     -125.4581
20
      -68.7988
11
     -128.0327
21
      -70.3019
39
 0
62
  7
 0
LINE
8
default
6
CONTINUOUS
10
      128.0327
20
      -70.3019
11
      130.6057
21
      -71.8079
39
 0
62
  7
 0
LINE
8
default
6
CONTINUOUS
10
     -128.0327
20
      -70.3019
11
     -130.6057
21
      -71.8079
39
 0
62
  7
 0
LINE
8
default
6
CONTINUOUS
10
      130.6057
20
      -71.8079
11
      133.1770
21
      -73.3166
39
 0
62
  7
 0
LINE
8
default
6
CONTINUOUS
10
     -130.6057
20
      -71.8079
11
     -133.1770
21
      -73.3166
39
 0
62
  7
 0
LINE
8
default
6
CONTINUOUS
10
      133.1770
20
      -73.3166
11
      135.7466
21
      -74.8282
39
 0
62
  7
 0
LINE
8
default
6
CONTINUOUS
10
     -133.1770
20
      -73.3166
11
     -135.7466
21
      -74.8282
39
 0
62
  7
 0
LINE
8
default
6
CONTINUOUS
10
      135.7466
20
      -74.8282
11
      138.3146
21
      -76.3425
39
 0
62
  7
 0
LINE
8
default
6
CONTINUOUS
10
     -135.7466
20
      -74.8282
11
     -138.3146
21
      -76.3425
39
 0
62
  7
 0
LINE
8
default
6
CONTINUOUS
10
      138.3146
20
      -76.3425
11
      140.8809
21
      -77.8597
39
 0
62
  7
 0
LINE
8
default
6
CONTINUOUS
10
     -138.3146
20
      -76.3425
11
     -140.8809
21
      -77.8597
39
 0
62
  7
 0
LINE
8
default
6
CONTINUOUS
10
      140.8809
20
      -77.8597
11
      143.4456
21
      -79.3797
39
 0
62
  7
 0
LINE
8
default
6
CONTINUOUS
10
     -140.8809
20
      -77.8597
11
     -143.4456
21
      -79.3797
39
 0
62
  7
 0
LINE
8
default
6
CONTINUOUS
10
      143.4456
20
      -79.3797
11
      146.0086
21
      -80.9025
39
 0
62
  7
 0
LINE
8
default
6
CONTINUOUS
10
     -143.4456
20
      -79.3797
11
     -146.0086
21
      -80.9025
39
 0
62
  7
 0
LINE
8
default
6
CONTINUOUS
10
      146.0086
20
      -80.9025
11
      148.5699
21
      -82.4281
39
 0
62
  7
 0
LINE
8
default
6
CONTINUOUS
10
     -146.0086
20
      -80.9025
11
     -148.5699
21
      -82.4281
39
 0
62
  7
 0
LINE
8
default
6
CONTINUOUS
10
      148.5699
20
      -82.4281
11
      151.1296
21
      -83.9565
39
 0
62
  7
 0
LINE
8
default
6
CONTINUOUS
10
     -148.5699
20
      -82.4281
11
     -151.1296
21
      -83.9565
39
 0
62
  7
 0
LINE
8
default
6
CONTINUOUS
10
      151.1296
20
      -83.9565
11
      153.6876
21
      -85.4877
39
 0
62
  7
 0
LINE
8
default
6
CONTINUOUS
10
     -151.1296
20
      -83.9565
11
     -153.6876
21
      -85.4877
39
 0
62
  7
 0
LINE
8
default
6
CONTINUOUS
10
      153.6876
20
      -85.4877
11
      156.2439
21
      -87.0218
39
 0
62
  7
 0
LINE
8
default
6
CONTINUOUS
10
     -153.6876
20
      -85.4877
11
     -156.2439
21
      -87.0218
39
 0
62
  7
 0
LINE
8
default
6
CONTINUOUS
10
      156.2439
20
      -87.0218
11
      158.7985
21
      -88.5586
39
 0
62
  7
 0
LINE
8
default
6
CONTINUOUS
10
     -156.2439
20
      -87.0218
11
     -158.7985
21
      -88.5586
39
 0
62
  7
 0
LINE
8
default
6
CONTINUOUS
10
      158.7985
20
      -88.5586
11
      161.3514
21
      -90.0982
39
 0
62
  7
 0
LINE
8
default
6
CONTINUOUS
10
     -158.7985
20
      -88.5586
11
     -161.3514
21
      -90.0982
39
 0
62
  7
 0
LINE
8
default
6
CONTINUOUS
10
      161.3514
20
      -90.0982
11
      163.9027
21
      -91.6406
39
 0
62
  7
 0
LINE
8
default
6
CONTINUOUS
10
     -161.3514
20
      -90.0982
11
     -163.9027
21
      -91.6406
39
 0
62
  7
 0
LINE
8
default
6
CONTINUOUS
10
      163.9027
20
      -91.6406
11
      166.4522
21
      -93.1858
39
 0
62
  7
 0
LINE
8
default
6
CONTINUOUS
10
     -163.9027
20
      -91.6406
11
     -166.4522
21
      -93.1858
39
 0
62
  7
 0
LINE
8
default
6
CONTINUOUS
10
      166.4522
20
      -93.1858
11
      169.0001
21
      -94.7338
39
 0
62
  7
 0
LINE
8
default
6
CONTINUOUS
10
     -166.4522
20
      -93.1858
11
     -169.0001
21
      -94.7338
39
 0
62
  7
 0
LINE
8
default
6
CONTINUOUS
10
      169.0001
20
      -94.7338
11
      171.5463
21
      -96.2846
39
 0
62
  7
 0
LINE
8
default
6
CONTINUOUS
10
     -169.0001
20
      -94.7338
11
     -171.5463
21
      -96.2846
39
 0
62
  7
 0
LINE
8
default
6
CONTINUOUS
10
      171.5463
20
      -96.2846
11
      174.0907
21
      -97.8382
39
 0
62
  7
 0
LINE
8
default
6
CONTINUOUS
10
     -171.5463
20
      -96.2846
11
     -174.0907
21
      -97.8382
39
 0
62
  7
 0
LINE
8
default
6
CONTINUOUS
10
      174.0907
20
      -97.8382
11
      176.6335
21
      -99.3945
39
 0
62
  7
 0
LINE
8
default
6
CONTINUOUS
10
     -174.0907
20
      -97.8382
11
     -176.6335
21
      -99.3945
39
 0
62
  7
 0
LINE
8
default
6
CONTINUOUS
10
      176.6335
20
      -99.3945
11
      179.1746
21
     -100.9537
39
 0
62
  7
 0
LINE
8
default
6
CONTINUOUS
10
     -176.6335
20
      -99.3945
11
     -179.1746
21
     -100.9537
39
 0
62
  7
 0
LINE
8
default
6
CONTINUOUS
10
      179.1746
20
     -100.9537
11
      181.7139
21
     -102.5156
39
 0
62
  7
 0
LINE
8
default
6
CONTINUOUS
10
     -179.1746
20
     -100.9537
11
     -181.7139
21
     -102.5156
39
 0
62
  7
 0
LINE
8
default
6
CONTINUOUS
10
      181.7139
20
     -102.5156
11
      184.2515
21
     -104.0803
39
 0
62
  7
 0
LINE
8
default
6
CONTINUOUS
10
     -181.7139
20
     -102.5156
11
     -184.2515
21
     -104.0803
39
 0
62
  7
 0
LINE
8
default
6
CONTINUOUS
10
      184.2515
20
     -104.0803
11
      186.7875
21
     -105.6478
39
 0
62
  7
 0
LINE
8
default
6
CONTINUOUS
10
     -184.2515
20
     -104.0803
11
     -186.7875
21
     -105.6478
39
 0
62
  7
 0
LINE
8
default
6
CONTINUOUS
10
      186.7875
20
     -105.6478
11
      189.3217
21
     -107.2181
39
 0
62
  7
 0
LINE
8
default
6
CONTINUOUS
10
     -186.7875
20
     -105.6478
11
     -189.3217
21
     -107.2181
39
 0
62
  7
 0
LINE
8
default
6
CONTINUOUS
10
      189.3217
20
     -107.2181
11
      191.8541
21
     -108.7911
39
 0
62
  7
 0
LINE
8
default
6
CONTINUOUS
10
     -189.3217
20
     -107.2181
11
     -191.8541
21
     -108.7911
39
 0
62
  7
 0
LINE
8
default
6
CONTINUOUS
10
      191.8541
20
     -108.7911
11
      194.3849
21
     -110.3669
39
 0
62
  7
 0
LINE
8
default
6
CONTINUOUS
10
     -191.8541
20
     -108.7911
11
     -194.3849
21
     -110.3669
39
 0
62
  7
 0
LINE
8
default
6
CONTINUOUS
10
      194.3849
20
     -110.3669
11
      196.9139
21
     -111.9455
39
 0
62
  7
 0
LINE
8
default
6
CONTINUOUS
10
     -194.3849
20
     -110.3669
11
     -196.9139
21
     -111.9455
39
 0
62
  7
 0
LINE
8
default
6
CONTINUOUS
10
      196.9139
20
     -111.9455
11
      199.4412
21
     -113.5269
39
 0
62
  7
 0
LINE
8
default
6
CONTINUOUS
10
     -196.9139
20
     -111.9455
11
     -199.4412
21
     -113.5269
39
 0
62
  7
 0
LINE
8
default
6
CONTINUOUS
10
      199.4412
20
     -113.5269
11
      201.9668
21
     -115.1110
39
 0
62
  7
 0
LINE
8
default
6
CONTINUOUS
10
     -199.4412
20
     -113.5269
11
     -201.9668
21
     -115.1110
39
 0
62
  7
 0
LINE
8
default
6
CONTINUOUS
10
      201.9668
20
     -115.1110
11
      204.4906
21
     -116.6979
39
 0
62
  7
 0
LINE
8
default
6
CONTINUOUS
10
     -201.9668
20
     -115.1110
11
     -204.4906
21
     -116.6979
39
 0
62
  7
 0
LINE
8
default
6
CONTINUOUS
10
      204.4906
20
     -116.6979
11
      207.0127
21
     -118.2875
39
 0
62
  7
 0
LINE
8
default
6
CONTINUOUS
10
     -204.4906
20
     -116.6979
11
     -207.0127
21
     -118.2875
39
 0
62
  7
 0
LINE
8
default
6
CONTINUOUS
10
      207.0127
20
     -118.2875
11
      209.5330
21
     -119.8799
39
 0
62
  7
 0
LINE
8
default
6
CONTINUOUS
10
     -207.0127
20
     -118.2875
11
     -209.5330
21
     -119.8799
39
 0
62
  7
 0
LINE
8
default
6
CONTINUOUS
10
      209.5330
20
     -119.8799
11
      212.0516
21
     -121.4751
39
 0
62
  7
 0
LINE
8
default
6
CONTINUOUS
10
     -209.5330
20
     -119.8799
11
     -212.0516
21
     -121.4751
39
 0
62
  7
 0
LINE
8
default
6
CONTINUOUS
10
      212.0516
20
     -121.4751
11
      214.5685
21
     -123.0730
39
 0
62
  7
 0
LINE
8
default
6
CONTINUOUS
10
     -212.0516
20
     -121.4751
11
     -214.5685
21
     -123.0730
39
 0
62
  7
 0
LINE
8
default
6
CONTINUOUS
10
      214.5685
20
     -123.0730
11
      217.0836
21
     -124.6737
39
 0
62
  7
 0
LINE
8
default
6
CONTINUOUS
10
     -214.5685
20
     -123.0730
11
     -217.0836
21
     -124.6737
39
 0
62
  7
 0
LINE
8
default
6
CONTINUOUS
10
      217.0836
20
     -124.6737
11
      219.5969
21
     -126.2772
39
 0
62
  7
 0
LINE
8
default
6
CONTINUOUS
10
     -217.0836
20
     -124.6737
11
     -219.5969
21
     -126.2772
39
 0
62
  7
 0
LINE
8
default
6
CONTINUOUS
10
      219.5969
20
     -126.2772
11
      222.1085
21
     -127.8833
39
 0
62
  7
 0
LINE
8
default
6
CONTINUOUS
10
     -219.5969
20
     -126.2772
11
     -222.1085
21
     -127.8833
39
 0
62
  7
 0
LINE
8
default
6
CONTINUOUS
10
      222.1085
20
     -127.8833
11
      224.6183
21
     -129.4923
39
 0
62
  7
 0
LINE
8
default
6
CONTINUOUS
10
     -222.1085
20
     -127.8833
11
     -224.6183
21
     -129.4923
39
 0
62
  7
 0
LINE
8
default
6
CONTINUOUS
10
      224.6183
20
     -129.4923
11
      227.1264
21
     -131.1040
39
 0
62
  7
 0
LINE
8
default
6
CONTINUOUS
10
     -224.6183
20
     -129.4923
11
     -227.1264
21
     -131.1040
39
 0
62
  7
 0
LINE
8
default
6
CONTINUOUS
10
      227.1264
20
     -131.1040
11
      229.6327
21
     -132.7184
39
 0
62
  7
 0
LINE
8
default
6
CONTINUOUS
10
     -227.1264
20
     -131.1040
11
     -229.6327
21
     -132.7184
39
 0
62
  7
 0
LINE
8
default
6
CONTINUOUS
10
      229.6327
20
     -132.7184
11
      232.1372
21
     -134.3356
39
 0
62
  7
 0
LINE
8
default
6
CONTINUOUS
10
     -229.6327
20
     -132.7184
11
     -232.1372
21
     -134.3356
39
 0
62
  7
 0
LINE
8
default
6
CONTINUOUS
10
      232.1372
20
     -134.3356
11
      234.6399
21
     -135.9555
39
 0
62
  7
 0
LINE
8
default
6
CONTINUOUS
10
     -232.1372
20
     -134.3356
11
     -234.6399
21
     -135.9555
39
 0
62
  7
 0
LINE
8
default
6
CONTINUOUS
10
      234.6399
20
     -135.9555
11
      237.1409
21
     -137.5782
39
 0
62
  7
 0
LINE
8
default
6
CONTINUOUS
10
     -234.6399
20
     -135.9555
11
     -237.1409
21
     -137.5782
39
 0
62
  7
 0
LINE
8
default
6
CONTINUOUS
10
      237.1409
20
     -137.5782
11
      239.6401
21
     -139.2036
39
 0
62
  7
 0
LINE
8
default
6
CONTINUOUS
10
     -237.1409
20
     -137.5782
11
     -239.6401
21
     -139.2036
39
 0
62
  7
 0
LINE
8
default
6
CONTINUOUS
10
      239.6401
20
     -139.2036
11
      242.1375
21
     -140.8317
39
 0
62
  7
 0
LINE
8
default
6
CONTINUOUS
10
     -239.6401
20
     -139.2036
11
     -242.1375
21
     -140.8317
39
 0
62
  7
 0
LINE
8
default
6
CONTINUOUS
10
      242.1375
20
     -140.8317
11
      244.6331
21
     -142.4626
39
 0
62
  7
 0
LINE
8
default
6
CONTINUOUS
10
     -242.1375
20
     -140.8317
11
     -244.6331
21
     -142.4626
39
 0
62
  7
 0
LINE
8
default
6
CONTINUOUS
10
      244.6331
20
     -142.4626
11
      247.1270
21
     -144.0962
39
 0
62
  7
 0
LINE
8
default
6
CONTINUOUS
10
     -244.6331
20
     -142.4626
11
     -247.1270
21
     -144.0962
39
 0
62
  7
 0
LINE
8
default
6
CONTINUOUS
10
      247.1270
20
     -144.0962
11
      249.6190
21
     -145.7326
39
 0
62
  7
 0
LINE
8
default
6
CONTINUOUS
10
     -247.1270
20
     -144.0962
11
     -249.6190
21
     -145.7326
39
 0
62
  7
 0
LINE
8
default
6
CONTINUOUS
10
      249.6190
20
     -145.7326
11
      252.1093
21
     -147.3716
39
 0
62
  7
 0
LINE
8
default
6
CONTINUOUS
10
     -249.6190
20
     -145.7326
11
     -252.1093
21
     -147.3716
39
 0
62
  7
 0
LINE
8
default
6
CONTINUOUS
10
      252.1093
20
     -147.3716
11
      254.5977
21
     -149.0134
39
 0
62
  7
 0
LINE
8
default
6
CONTINUOUS
10
     -252.1093
20
     -147.3716
11
     -254.5977
21
     -149.0134
39
 0
62
  7
 0
LINE
8
default
6
CONTINUOUS
10
      254.5977
20
     -149.0134
11
      256.8142
21
     -150.4778
39
 0
62
  7
 0
LINE
8
default
6
CONTINUOUS
10
     -254.5977
20
     -149.0134
11
     -256.8142
21
     -150.4778
39
 0
62
  7
 0
LINE
8
default
6
CONTINUOUS
10
      256.8142
20
     -150.4778
11
      259.0304
21
     -151.9427
39
 0
62
  7
 0
LINE
8
default
6
CONTINUOUS
10
     -256.8142
20
     -150.4778
11
     -259.0304
21
     -151.9427
39
 0
62
  7
 0
LINE
8
default
6
CONTINUOUS
10
      259.0304
20
     -151.9427
11
      261.2463
21
     -153.4080
39
 0
62
  7
 0
LINE
8
default
6
CONTINUOUS
10
     -259.0304
20
     -151.9427
11
     -261.2463
21
     -153.4080
39
 0
62
  7
 0
LINE
8
default
6
CONTINUOUS
10
      261.2463
20
     -153.4080
11
      263.4619
21
     -154.8738
39
 0
62
  7
 0
LINE
8
default
6
CONTINUOUS
10
     -261.2463
20
     -153.4080
11
     -263.4619
21
     -154.8738
39
 0
62
  7
 0
LINE
8
default
6
CONTINUOUS
10
      263.4619
20
     -154.8738
11
      265.6772
21
     -156.3400
39
 0
62
  7
 0
LINE
8
default
6
CONTINUOUS
10
     -263.4619
20
     -154.8738
11
     -265.6772
21
     -156.3400
39
 0
62
  7
 0
LINE
8
default
6
CONTINUOUS
10
      265.6772
20
     -156.3400
11
      267.8923
21
     -157.8066
39
 0
62
  7
 0
LINE
8
default
6
CONTINUOUS
10
     -265.6772
20
     -156.3400
11
     -267.8923
21
     -157.8066
39
 0
62
  7
 0
LINE
8
default
6
CONTINUOUS
10
      267.8923
20
     -157.8066
11
      270.1070
21
     -159.2737
39
 0
62
  7
 0
LINE
8
default
6
CONTINUOUS
10
     -267.8923
20
     -157.8066
11
     -270.1070
21
     -159.2737
39
 0
62
  7
 0
LINE
8
default
6
CONTINUOUS
10
      270.1070
20
     -159.2737
11
      272.3214
21
     -160.7412
39
 0
62
  7
 0
LINE
8
default
6
CONTINUOUS
10
     -270.1070
20
     -159.2737
11
     -272.3214
21
     -160.7412
39
 0
62
  7
 0
LINE
8
default
6
CONTINUOUS
10
      272.3214
20
     -160.7412
11
      274.5356
21
     -162.2091
39
 0
62
  7
 0
LINE
8
default
6
CONTINUOUS
10
     -272.3214
20
     -160.7412
11
     -274.5356
21
     -162.2091
39
 0
62
  7
 0
LINE
8
default
6
CONTINUOUS
10
      274.5356
20
     -162.2091
11
      276.7494
21
     -163.6775
39
 0
62
  7
 0
LINE
8
default
6
CONTINUOUS
10
     -274.5356
20
     -162.2091
11
     -276.7494
21
     -163.6775
39
 0
62
  7
 0
LINE
8
default
6
CONTINUOUS
10
      276.7494
20
     -163.6775
11
      278.9630
21
     -165.1464
39
 0
62
  7
 0
LINE
8
default
6
CONTINUOUS
10
     -276.7494
20
     -163.6775
11
     -278.9630
21
     -165.1464
39
 0
62
  7
 0
LINE
8
default
6
CONTINUOUS
10
      278.9630
20
     -165.1464
11
      281.1763
21
     -166.6156
39
 0
62
  7
 0
LINE
8
default
6
CONTINUOUS
10
     -278.9630
20
     -165.1464
11
     -281.1763
21
     -166.6156
39
 0
62
  7
 0
LINE
8
default
6
CONTINUOUS
10
      281.1763
20
     -166.6156
11
      283.3893
21
     -168.0854
39
 0
62
  7
 0
LINE
8
default
6
CONTINUOUS
10
     -281.1763
20
     -166.6156
11
     -283.3893
21
     -168.0854
39
 0
62
  7
 0
LINE
8
default
6
CONTINUOUS
10
      283.3893
20
     -168.0854
11
      285.6020
21
     -169.5555
39
 0
62
  7
 0
LINE
8
default
6
CONTINUOUS
10
     -283.3893
20
     -168.0854
11
     -285.6020
21
     -169.5555
39
 0
62
  7
 0
LINE
8
default
6
CONTINUOUS
10
      285.6020
20
     -169.5555
11
      287.8144
21
     -171.0261
39
 0
62
  7
 0
LINE
8
default
6
CONTINUOUS
10
     -285.6020
20
     -169.5555
11
     -287.8144
21
     -171.0261
39
 0
62
  7
 0
LINE
8
default
6
CONTINUOUS
10
      287.8144
20
     -171.0261
11
      290.0265
21
     -172.4972
39
 0
62
  7
 0
LINE
8
default
6
CONTINUOUS
10
     -287.8144
20
     -171.0261
11
     -290.0265
21
     -172.4972
39
 0
62
  7
 0
LINE
8
default
6
CONTINUOUS
10
      290.0265
20
     -172.4972
11
      292.2383
21
     -173.9687
39
 0
62
  7
 0
LINE
8
default
6
CONTINUOUS
10
     -290.0265
20
     -172.4972
11
     -292.2383
21
     -173.9687
39
 0
62
  7
 0
LINE
8
default
6
CONTINUOUS
10
      292.2383
20
     -173.9687
11
      294.4498
21
     -175.4406
39
 0
62
  7
 0
LINE
8
default
6
CONTINUOUS
10
     -292.2383
20
     -173.9687
11
     -294.4498
21
     -175.4406
39
 0
62
  7
 0
LINE
8
default
6
CONTINUOUS
10
      294.4498
20
     -175.4406
11
      296.6610
21
     -176.9130
39
 0
62
  7
 0
LINE
8
default
6
CONTINUOUS
10
     -294.4498
20
     -175.4406
11
     -296.6610
21
     -176.9130
39
 0
62
  7
 0
LINE
8
default
6
CONTINUOUS
10
      296.6610
20
     -176.9130
11
      298.8720
21
     -178.3858
39
 0
62
  7
 0
LINE
8
default
6
CONTINUOUS
10
     -296.6610
20
     -176.9130
11
     -298.8720
21
     -178.3858
39
 0
62
  7
 0
LINE
8
default
6
CONTINUOUS
10
      298.8720
20
     -178.3858
11
      301.0826
21
     -179.8591
39
 0
62
  7
 0
LINE
8
default
6
CONTINUOUS
10
     -298.8720
20
     -178.3858
11
     -301.0826
21
     -179.8591
39
 0
62
  7
 0
LINE
8
default
6
CONTINUOUS
10
      301.0826
20
     -179.8591
11
      303.2930
21
     -181.3328
39
 0
62
  7
 0
LINE
8
default
6
CONTINUOUS
10
     -301.0826
20
     -179.8591
11
     -303.2930
21
     -181.3328
39
 0
62
  7
 0
LINE
8
default
6
CONTINUOUS
10
      303.2930
20
     -181.3328
11
      305.5030
21
     -182.8069
39
 0
62
  7
 0
LINE
8
default
6
CONTINUOUS
10
     -303.2930
20
     -181.3328
11
     -305.5030
21
     -182.8069
39
 0
62
  7
 0
LINE
8
default
6
CONTINUOUS
10
      305.5030
20
     -182.8069
11
      307.7128
21
     -184.2815
39
 0
62
  7
 0
LINE
8
default
6
CONTINUOUS
10
     -305.5030
20
     -182.8069
11
     -307.7128
21
     -184.2815
39
 0
62
  7
 0
LINE
8
default
6
CONTINUOUS
10
      307.7128
20
     -184.2815
11
      309.9223
21
     -185.7566
39
 0
62
  7
 0
LINE
8
default
6
CONTINUOUS
10
     -307.7128
20
     -184.2815
11
     -309.9223
21
     -185.7566
39
 0
62
  7
 0
LINE
8
default
6
CONTINUOUS
10
      309.9223
20
     -185.7566
11
      312.1315
21
     -187.2320
39
 0
62
  7
 0
LINE
8
default
6
CONTINUOUS
10
     -309.9223
20
     -185.7566
11
     -312.1315
21
     -187.2320
39
 0
62
  7
 0
LINE
8
default
6
CONTINUOUS
10
      312.1315
20
     -187.2320
11
      314.3404
21
     -188.7079
39
 0
62
  7
 0
LINE
8
default
6
CONTINUOUS
10
     -312.1315
20
     -187.2320
11
     -314.3404
21
     -188.7079
39
 0
62
  7
 0
LINE
8
default
6
CONTINUOUS
10
      314.3404
20
     -188.7079
11
      316.5490
21
     -190.1843
39
 0
62
  7
 0
LINE
8
default
6
CONTINUOUS
10
     -314.3404
20
     -188.7079
11
     -316.5490
21
     -190.1843
39
 0
62
  7
 0
LINE
8
default
6
CONTINUOUS
10
      316.5490
20
     -190.1843
11
      318.7573
21
     -191.6611
39
 0
62
  7
 0
LINE
8
default
6
CONTINUOUS
10
     -316.5490
20
     -190.1843
11
     -318.7573
21
     -191.6611
39
 0
62
  7
 0
LINE
8
default
6
CONTINUOUS
10
      318.7573
20
     -191.6611
11
      320.9653
21
     -193.1383
39
 0
62
  7
 0
LINE
8
default
6
CONTINUOUS
10
     -318.7573
20
     -191.6611
11
     -320.9653
21
     -193.1383
39
 0
62
  7
 0
LINE
8
default
6
CONTINUOUS
10
      320.9653
20
     -193.1383
11
      323.1730
21
     -194.6160
39
 0
62
  7
 0
LINE
8
default
6
CONTINUOUS
10
     -320.9653
20
     -193.1383
11
     -323.1730
21
     -194.6160
39
 0
62
  7
 0
LINE
8
default
6
CONTINUOUS
10
      323.1730
20
     -194.6160
11
      325.3805
21
     -196.0941
39
 0
62
  7
 0
LINE
8
default
6
CONTINUOUS
10
     -323.1730
20
     -194.6160
11
     -325.3805
21
     -196.0941
39
 0
62
  7
 0
LINE
8
default
6
CONTINUOUS
10
      325.3805
20
     -196.0941
11
      327.5876
21
     -197.5727
39
 0
62
  7
 0
LINE
8
default
6
CONTINUOUS
10
     -325.3805
20
     -196.0941
11
     -327.5876
21
     -197.5727
39
 0
62
  7
 0
LINE
8
default
6
CONTINUOUS
10
      327.5876
20
     -197.5727
11
      329.7945
21
     -199.0517
39
 0
62
  7
 0
LINE
8
default
6
CONTINUOUS
10
     -327.5876
20
     -197.5727
11
     -329.7945
21
     -199.0517
39
 0
62
  7
 0
LINE
8
default
6
CONTINUOUS
10
      329.7945
20
     -199.0517
11
      332.0010
21
     -200.5312
39
 0
62
  7
 0
LINE
8
default
6
CONTINUOUS
10
     -329.7945
20
     -199.0517
11
     -332.0010
21
     -200.5312
39
 0
62
  7
 0
LINE
8
default
6
CONTINUOUS
10
      332.0010
20
     -200.5312
11
      334.2073
21
     -202.0110
39
 0
62
  7
 0
LINE
8
default
6
CONTINUOUS
10
     -332.0010
20
     -200.5312
11
     -334.2073
21
     -202.0110
39
 0
62
  7
 0
LINE
8
default
6
CONTINUOUS
10
      334.2073
20
     -202.0110
11
      336.4133
21
     -203.4914
39
 0
62
  7
 0
LINE
8
default
6
CONTINUOUS
10
     -334.2073
20
     -202.0110
11
     -336.4133
21
     -203.4914
39
 0
62
  7
 0
LINE
8
default
6
CONTINUOUS
10
      336.4133
20
     -203.4914
11
      338.6190
21
     -204.9722
39
 0
62
  7
 0
LINE
8
default
6
CONTINUOUS
10
     -336.4133
20
     -203.4914
11
     -338.6190
21
     -204.9722
39
 0
62
  7
 0
LINE
8
default
6
CONTINUOUS
10
      338.6190
20
     -204.9722
11
      340.8243
21
     -206.4534
39
 0
62
  7
 0
LINE
8
default
6
CONTINUOUS
10
     -338.6190
20
     -204.9722
11
     -340.8243
21
     -206.4534
39
 0
62
  7
 0
LINE
8
default
6
CONTINUOUS
10
      340.8243
20
     -206.4534
11
      343.0294
21
     -207.9350
39
 0
62
  7
 0
LINE
8
default
6
CONTINUOUS
10
     -340.8243
20
     -206.4534
11
     -343.0294
21
     -207.9350
39
 0
62
  7
 0
LINE
8
default
6
CONTINUOUS
10
      343.0294
20
     -207.9350
11
      345.2343
21
     -209.4171
39
 0
62
  7
 0
LINE
8
default
6
CONTINUOUS
10
     -343.0294
20
     -207.9350
11
     -345.2343
21
     -209.4171
39
 0
62
  7
 0
LINE
8
default
6
CONTINUOUS
10
      345.2343
20
     -209.4171
11
      347.4388
21
     -210.8997
39
 0
62
  7
 0
LINE
8
default
6
CONTINUOUS
10
     -345.2343
20
     -209.4171
11
     -347.4388
21
     -210.8997
39
 0
62
  7
 0
LINE
8
default
6
CONTINUOUS
10
      347.4388
20
     -210.8997
11
      349.6430
21
     -212.3827
39
 0
62
  7
 0
LINE
8
default
6
CONTINUOUS
10
     -347.4388
20
     -210.8997
11
     -349.6430
21
     -212.3827
39
 0
62
  7
 0
LINE
8
default
6
CONTINUOUS
10
      349.6430
20
     -212.3827
11
      351.8469
21
     -213.8661
39
 0
62
  7
 0
LINE
8
default
6
CONTINUOUS
10
     -349.6430
20
     -212.3827
11
     -351.8469
21
     -213.8661
39
 0
62
  7
 0
LINE
8
default
6
CONTINUOUS
10
      351.8469
20
     -213.8661
11
      354.0506
21
     -215.3500
39
 0
62
  7
 0
LINE
8
default
6
CONTINUOUS
10
     -351.8469
20
     -213.8661
11
     -354.0506
21
     -215.3500
39
 0
62
  7
 0
LINE
8
default
6
CONTINUOUS
10
      354.0506
20
     -215.3500
11
      356.2539
21
     -216.8343
39
 0
62
  7
 0
LINE
8
default
6
CONTINUOUS
10
     -354.0506
20
     -215.3500
11
     -356.2539
21
     -216.8343
39
 0
62
  7
 0
LINE
8
default
6
CONTINUOUS
10
      356.2539
20
     -216.8343
11
      358.4570
21
     -218.3190
39
 0
62
  7
 0
LINE
8
default
6
CONTINUOUS
10
     -356.2539
20
     -216.8343
11
     -358.4570
21
     -218.3190
39
 0
62
  7
 0
LINE
8
default
6
CONTINUOUS
10
      358.4570
20
     -218.3190
11
      360.6597
21
     -219.8042
39
 0
62
  7
 0
LINE
8
default
6
CONTINUOUS
10
     -358.4570
20
     -218.3190
11
     -360.6597
21
     -219.8042
39
 0
62
  7
 0
LINE
8
default
6
CONTINUOUS
10
      360.6597
20
     -219.8042
11
      362.8622
21
     -221.2899
39
 0
62
  7
 0
LINE
8
default
6
CONTINUOUS
10
     -360.6597
20
     -219.8042
11
     -362.8622
21
     -221.2899
39
 0
62
  7
 0
LINE
8
default
6
CONTINUOUS
10
      362.8622
20
     -221.2899
11
      365.0644
21
     -222.7759
39
 0
62
  7
 0
LINE
8
default
6
CONTINUOUS
10
     -362.8622
20
     -221.2899
11
     -365.0644
21
     -222.7759
39
 0
62
  7
 0
LINE
8
default
6
CONTINUOUS
10
      365.0644
20
     -222.7759
11
      367.2663
21
     -224.2625
39
 0
62
  7
 0
LINE
8
default
6
CONTINUOUS
10
     -365.0644
20
     -222.7759
11
     -367.2663
21
     -224.2625
39
 0
62
  7
 0
LINE
8
default
6
CONTINUOUS
10
      367.2663
20
     -224.2625
11
      369.4679
21
     -225.7494
39
 0
62
  7
 0
LINE
8
default
6
CONTINUOUS
10
     -367.2663
20
     -224.2625
11
     -369.4679
21
     -225.7494
39
 0
62
  7
 0
LINE
8
default
6
CONTINUOUS
10
      369.4679
20
     -225.7494
11
      371.6692
21
     -227.2368
39
 0
62
  7
 0
LINE
8
default
6
CONTINUOUS
10
     -369.4679
20
     -225.7494
11
     -371.6692
21
     -227.2368
39
 0
62
  7
 0
LINE
8
default
6
CONTINUOUS
10
      371.6692
20
     -227.2368
11
      373.8702
21
     -228.7247
39
 0
62
  7
 0
LINE
8
default
6
CONTINUOUS
10
     -371.6692
20
     -227.2368
11
     -373.8702
21
     -228.7247
39
 0
62
  7
 0
LINE
8
default
6
CONTINUOUS
10
      373.8702
20
     -228.7247
11
      376.0709
21
     -230.2130
39
 0
62
  7
 0
LINE
8
default
6
CONTINUOUS
10
     -373.8702
20
     -228.7247
11
     -376.0709
21
     -230.2130
39
 0
62
  7
 0
LINE
8
default
6
CONTINUOUS
10
      376.0709
20
     -230.2130
11
      378.2713
21
     -231.7017
39
 0
62
  7
 0
LINE
8
default
6
CONTINUOUS
10
     -376.0709
20
     -230.2130
11
     -378.2713
21
     -231.7017
39
 0
62
  7
 0
LINE
8
default
6
CONTINUOUS
10
      378.2713
20
     -231.7017
11
      380.4715
21
     -233.1909
39
 0
62
  7
 0
LINE
8
default
6
CONTINUOUS
10
     -378.2713
20
     -231.7017
11
     -380.4715
21
     -233.1909
39
 0
62
  7
 0
LINE
8
default
6
CONTINUOUS
10
      380.4715
20
     -233.1909
11
      382.6713
21
     -234.6805
39
 0
62
  7
 0
LINE
8
default
6
CONTINUOUS
10
     -380.4715
20
     -233.1909
11
     -382.6713
21
     -234.6805
39
 0
62
  7
 0
LINE
8
default
6
CONTINUOUS
10
      382.6713
20
     -234.6805
11
      384.8709
21
     -236.1706
39
 0
62
  7
 0
LINE
8
default
6
CONTINUOUS
10
     -382.6713
20
     -234.6805
11
     -384.8709
21
     -236.1706
39
 0
62
  7
 0
LINE
8
default
6
CONTINUOUS
10
      384.8709
20
     -236.1706
11
      387.0701
21
     -237.6611
39
 0
62
  7
 0
LINE
8
default
6
CONTINUOUS
10
     -384.8709
20
     -236.1706
11
     -387.0701
21
     -237.6611
39
 0
62
  7
 0
LINE
8
default
6
CONTINUOUS
10
      387.0701
20
     -237.6611
11
      389.2691
21
     -239.1520
39
 0
62
  7
 0
LINE
8
default
6
CONTINUOUS
10
     -387.0701
20
     -237.6611
11
     -389.2691
21
     -239.1520
39
 0
62
  7
 0
LINE
8
default
6
CONTINUOUS
10
      389.2691
20
     -239.1520
11
      391.4678
21
     -240.6434
39
 0
62
  7
 0
LINE
8
default
6
CONTINUOUS
10
     -389.2691
20
     -239.1520
11
     -391.4678
21
     -240.6434
39
 0
62
  7
 0
LINE
8
default
6
CONTINUOUS
10
      391.4678
20
     -240.6434
11
      393.6661
21
     -242.1352
39
 0
62
  7
 0
LINE
8
default
6
CONTINUOUS
10
     -391.4678
20
     -240.6434
11
     -393.6661
21
     -242.1352
39
 0
62
  7
 0
LINE
8
default
6
CONTINUOUS
10
      393.6661
20
     -242.1352
11
      395.8642
21
     -243.6275
39
 0
62
  7
 0
LINE
8
default
6
CONTINUOUS
10
     -393.6661
20
     -242.1352
11
     -395.8642
21
     -243.6275
39
 0
62
  7
 0
LINE
8
default
6
CONTINUOUS
10
      395.8642
20
     -243.6275
11
      398.0620
21
     -245.1202
39
 0
62
  7
 0
LINE
8
default
6
CONTINUOUS
10
     -395.8642
20
     -243.6275
11
     -398.0620
21
     -245.1202
39
 0
62
  7
 0
LINE
8
default
6
CONTINUOUS
10
      398.0620
20
     -245.1202
11
      400.2595
21
     -246.6133
39
 0
62
  7
 0
LINE
8
default
6
CONTINUOUS
10
     -398.0620
20
     -245.1202
11
     -400.2595
21
     -246.6133
39
 0
62
  7
 0
LINE
8
default
6
CONTINUOUS
10
      400.2595
20
     -246.6133
11
      402.4568
21
     -248.1069
39
 0
62
  7
 0
LINE
8
default
6
CONTINUOUS
10
     -400.2595
20
     -246.6133
11
     -402.4568
21
     -248.1069
39
 0
62
  7
 0
LINE
8
default
6
CONTINUOUS
10
      402.4568
20
     -248.1069
11
      404.6537
21
     -249.6010
39
 0
62
  7
 0
LINE
8
default
6
CONTINUOUS
10
     -402.4568
20
     -248.1069
11
     -404.6537
21
     -249.6010
39
 0
62
  7
 0
LINE
8
default
6
CONTINUOUS
10
      404.6537
20
     -249.6010
11
      406.8503
21
     -251.0954
39
 0
62
  7
 0
LINE
8
default
6
CONTINUOUS
10
     -404.6537
20
     -249.6010
11
     -406.8503
21
     -251.0954
39
 0
62
  7
 0
LINE
8
default
6
CONTINUOUS
10
      406.8503
20
     -251.0954
11
      409.0467
21
     -252.5904
39
 0
62
  7
 0
LINE
8
default
6
CONTINUOUS
10
     -406.8503
20
     -251.0954
11
     -409.0467
21
     -252.5904
39
 0
62
  7
 0
LINE
8
default
6
CONTINUOUS
10
      409.0467
20
     -252.5904
11
      411.2427
21
     -254.0857
39
 0
62
  7
 0
LINE
8
default
6
CONTINUOUS
10
     -409.0467
20
     -252.5904
11
     -411.2427
21
     -254.0857
39
 0
62
  7
 0
LINE
8
default
6
CONTINUOUS
10
      411.2427
20
     -254.0857
11
      413.4385
21
     -255.5815
39
 0
62
  7
 0
LINE
8
default
6
CONTINUOUS
10
     -411.2427
20
     -254.0857
11
     -413.4385
21
     -255.5815
39
 0
62
  7
 0
LINE
8
default
6
CONTINUOUS
10
      413.4385
20
     -255.5815
11
      415.6339
21
     -257.0778
39
 0
62
  7
 0
LINE
8
default
6
CONTINUOUS
10
     -413.4385
20
     -255.5815
11
     -415.6339
21
     -257.0778
39
 0
62
  7
 0
LINE
8
default
6
CONTINUOUS
10
      415.6339
20
     -257.0778
11
      417.8291
21
     -258.5745
39
 0
62
  7
 0
LINE
8
default
6
CONTINUOUS
10
     -415.6339
20
     -257.0778
11
     -417.8291
21
     -258.5745
39
 0
62
  7
 0
LINE
8
default
6
CONTINUOUS
10
      417.8291
20
     -258.5745
11
      420.0240
21
     -260.0716
39
 0
62
  7
 0
LINE
8
default
6
CONTINUOUS
10
     -417.8291
20
     -258.5745
11
     -420.0240
21
     -260.0716
39
 0
62
  7
 0
LINE
8
default
6
CONTINUOUS
10
      420.0240
20
     -260.0716
11
      422.2186
21
     -261.5692
39
 0
62
  7
 0
LINE
8
default
6
CONTINUOUS
10
     -420.0240
20
     -260.0716
11
     -422.2186
21
     -261.5692
39
 0
62
  7
 0
LINE
8
default
6
CONTINUOUS
10
      422.2186
20
     -261.5692
11
      424.4129
21
     -263.0672
39
 0
62
  7
 0
LINE
8
default
6
CONTINUOUS
10
     -422.2186
20
     -261.5692
11
     -424.4129
21
     -263.0672
39
 0
62
  7
 0
LINE
8
default
6
CONTINUOUS
10
      424.4129
20
     -263.0672
11
      426.6069
21
     -264.5656
39
 0
62
  7
 0
LINE
8
default
6
CONTINUOUS
10
     -424.4129
20
     -263.0672
11
     -426.6069
21
     -264.5656
39
 0
62
  7
 0
LINE
8
default
6
CONTINUOUS
10
      426.6069
20
     -264.5656
11
      428.8006
21
     -266.0645
39
 0
62
  7
 0
LINE
8
default
6
CONTINUOUS
10
     -426.6069
20
     -264.5656
11
     -428.8006
21
     -266.0645
39
 0
62
  7
 0
LINE
8
default
6
CONTINUOUS
10
      428.8006
20
     -266.0645
11
      430.9940
21
     -267.5639
39
 0
62
  7
 0
LINE
8
default
6
CONTINUOUS
10
     -428.8006
20
     -266.0645
11
     -430.9940
21
     -267.5639
39
 0
62
  7
 0
LINE
8
default
6
CONTINUOUS
10
      430.9940
20
     -267.5639
11
      433.1871
21
     -269.0637
39
 0
62
  7
 0
LINE
8
default
6
CONTINUOUS
10
     -430.9940
20
     -267.5639
11
     -433.1871
21
     -269.0637
39
 0
62
  7
 0
LINE
8
default
6
CONTINUOUS
10
      433.1871
20
     -269.0637
11
      435.3800
21
     -270.5639
39
 0
62
  7
 0
LINE
8
default
6
CONTINUOUS
10
     -433.1871
20
     -269.0637
11
     -435.3800
21
     -270.5639
39
 0
62
  7
 0
LINE
8
default
6
CONTINUOUS
10
      435.3800
20
     -270.5639
11
      437.5725
21
     -272.0646
39
 0
62
  7
 0
LINE
8
default
6
CONTINUOUS
10
     -435.3800
20
     -270.5639
11
     -437.5725
21
     -272.0646
39
 0
62
  7
 0
LINE
8
default
6
CONTINUOUS
10
      437.5725
20
     -272.0646
11
      439.7648
21
     -273.5657
39
 0
62
  7
 0
LINE
8
default
6
CONTINUOUS
10
     -437.5725
20
     -272.0646
11
     -439.7648
21
     -273.5657
39
 0
62
  7
 0
LINE
8
default
6
CONTINUOUS
10
      439.7648
20
     -273.5657
11
      441.9567
21
     -275.0672
39
 0
62
  7
 0
LINE
8
default
6
CONTINUOUS
10
     -439.7648
20
     -273.5657
11
     -441.9567
21
     -275.0672
39
 0
62
  7
 0
LINE
8
default
6
CONTINUOUS
10
      441.9567
20
     -275.0672
11
      444.1484
21
     -276.5692
39
 0
62
  7
 0
LINE
8
default
6
CONTINUOUS
10
     -441.9567
20
     -275.0672
11
     -444.1484
21
     -276.5692
39
 0
62
  7
 0
LINE
8
default
6
CONTINUOUS
10
      444.1484
20
     -276.5692
11
      446.3398
21
     -278.0716
39
 0
62
  7
 0
LINE
8
default
6
CONTINUOUS
10
     -444.1484
20
     -276.5692
11
     -446.3398
21
     -278.0716
39
 0
62
  7
 0
LINE
8
default
6
CONTINUOUS
10
      446.3398
20
     -278.0716
11
      448.5308
21
     -279.5745
39
 0
62
  7
 0
LINE
8
default
6
CONTINUOUS
10
     -446.3398
20
     -278.0716
11
     -448.5308
21
     -279.5745
39
 0
62
  7
 0
LINE
8
default
6
CONTINUOUS
10
      448.5308
20
     -279.5745
11
      450.7216
21
     -281.0778
39
 0
62
  7
 0
LINE
8
default
6
CONTINUOUS
10
     -448.5308
20
     -279.5745
11
     -450.7216
21
     -281.0778
39
 0
62
  7
 0
LINE
8
default
6
CONTINUOUS
10
      450.7216
20
     -281.0778
11
      452.9121
21
     -282.5816
39
 0
62
  7
 0
LINE
8
default
6
CONTINUOUS
10
     -450.7216
20
     -281.0778
11
     -452.9121
21
     -282.5816
39
 0
62
  7
 0
LINE
8
default
6
CONTINUOUS
10
      452.9121
20
     -282.5816
11
      455.1023
21
     -284.0858
39
 0
62
  7
 0
LINE
8
default
6
CONTINUOUS
10
     -452.9121
20
     -282.5816
11
     -455.1023
21
     -284.0858
39
 0
62
  7
 0
LINE
8
default
6
CONTINUOUS
10
      455.1023
20
     -284.0858
11
      457.2923
21
     -285.5904
39
 0
62
  7
 0
LINE
8
default
6
CONTINUOUS
10
     -455.1023
20
     -284.0858
11
     -457.2923
21
     -285.5904
39
 0
62
  7
 0
LINE
8
default
6
CONTINUOUS
10
      457.2923
20
     -285.5904
11
      459.4819
21
     -287.0955
39
 0
62
  7
 0
LINE
8
default
6
CONTINUOUS
10
     -457.2923
20
     -285.5904
11
     -459.4819
21
     -287.0955
39
 0
62
  7
 0
LINE
8
default
6
CONTINUOUS
10
      459.4819
20
     -287.0955
11
      461.6712
21
     -288.6011
39
 0
62
  7
 0
LINE
8
default
6
CONTINUOUS
10
     -459.4819
20
     -287.0955
11
     -461.6712
21
     -288.6011
39
 0
62
  7
 0
LINE
8
default
6
CONTINUOUS
10
      461.6712
20
     -288.6011
11
      463.8603
21
     -290.1070
39
 0
62
  7
 0
LINE
8
default
6
CONTINUOUS
10
     -461.6712
20
     -288.6011
11
     -463.8603
21
     -290.1070
39
 0
62
  7
 0
LINE
8
default
6
CONTINUOUS
10
      463.8603
20
     -290.1070
11
      466.0490
21
     -291.6135
39
 0
62
  7
 0
LINE
8
default
6
CONTINUOUS
10
     -463.8603
20
     -290.1070
11
     -466.0490
21
     -291.6135
39
 0
62
  7
 0
LINE
8
default
6
CONTINUOUS
10
      466.0490
20
     -291.6135
11
      468.2375
21
     -293.1203
39
 0
62
  7
 0
LINE
8
default
6
CONTINUOUS
10
     -466.0490
20
     -291.6135
11
     -468.2375
21
     -293.1203
39
 0
62
  7
 0
LINE
8
default
6
CONTINUOUS
10
      468.2375
20
     -293.1203
11
      470.4256
21
     -294.6276
39
 0
62
  7
 0
LINE
8
default
6
CONTINUOUS
10
     -468.2375
20
     -293.1203
11
     -470.4256
21
     -294.6276
39
 0
62
  7
 0
LINE
8
default
6
CONTINUOUS
10
      470.4256
20
     -294.6276
11
      472.4804
21
     -296.0436
39
 0
62
  7
 0
LINE
8
default
6
CONTINUOUS
10
     -470.4256
20
     -294.6276
11
     -472.4804
21
     -296.0436
39
 0
62
  7
 0
LINE
8
default
6
CONTINUOUS
10
        0.0000
20
       -0.0000
11
        0.0000
21
     -373.0000
39
 0
62
  7
 0
LINE
8
default
6
CONTINUOUS
10
      254.4770
20
     -148.9338
11
        0.0000
21
     -127.5000
39
 0
62
  7
 0
LINE
8
default
6
CONTINUOUS
10
     -254.4770
20
     -148.9338
11
       -0.0000
21
     -127.5000
39
 0
62
  7
 0
LINE
8
default
6
CONTINUOUS
10
        0.0000
20
     -248.0000
11
       27.8372
21
     -255.4240
39
 0
62
  5
 0
LINE
8
default
6
CONTINUOUS
10
       -0.0000
20
     -248.0000
11
      -27.8372
21
     -255.4240
39
 0
62
  5
 0
LINE
8
default
6
CONTINUOUS
10
       27.8372
20
     -255.4240
11
       70.6221
21
     -265.8139
39
 0
62
  5
 0
LINE
8
default
6
CONTINUOUS
10
      -27.8372
20
     -255.4240
11
      -70.6221
21
     -265.8139
39
 0
62
  5
 0
LINE
8
default
6
CONTINUOUS
10
       70.6221
20
     -265.8139
11
      110.5841
21
     -278.6915
39
 0
62
  5
 0
LINE
8
default
6
CONTINUOUS
10
      -70.6221
20
     -265.8139
11
     -110.5841
21
     -278.6915
39
 0
62
  5
 0
LINE
8
default
6
CONTINUOUS
10
      110.5841
20
     -278.6915
11
      156.4883
21
     -290.2127
39
 0
62
  5
 0
LINE
8
default
6
CONTINUOUS
10
     -110.5841
20
     -278.6915
11
     -156.4883
21
     -290.2127
39
 0
62
  5
 0
LINE
8
default
6
CONTINUOUS
10
      156.4883
20
     -290.2127
11
      191.2080
21
     -302.0708
39
 0
62
  5
 0
LINE
8
default
6
CONTINUOUS
10
     -156.4883
20
     -290.2127
11
     -191.2080
21
     -302.0708
39
 0
62
  5
 0
LINE
8
default
6
CONTINUOUS
10
      191.2080
20
     -302.0708
11
      228.0204
21
     -311.5304
39
 0
62
  5
 0
LINE
8
default
6
CONTINUOUS
10
     -191.2080
20
     -302.0708
11
     -228.0204
21
     -311.5304
39
 0
62
  5
 0
LINE
8
default
6
CONTINUOUS
10
      228.0204
20
     -311.5304
11
      270.3629
21
     -325.4854
39
 0
62
  5
 0
LINE
8
default
6
CONTINUOUS
10
     -228.0204
20
     -311.5304
11
     -270.3629
21
     -325.4854
39
 0
62
  5
 0
LINE
8
default
6
CONTINUOUS
10
      270.3629
20
     -325.4854
11
      309.4879
21
     -333.8833
39
 0
62
  5
 0
LINE
8
default
6
CONTINUOUS
10
     -270.3629
20
     -325.4854
11
     -309.4879
21
     -333.8833
39
 0
62
  5
 0
LINE
8
default
6
CONTINUOUS
10
      309.4879
20
     -333.8833
11
      348.1955
21
     -345.2607
39
 0
62
  5
 0
LINE
8
default
6
CONTINUOUS
10
     -309.4879
20
     -333.8833
11
     -348.1955
21
     -345.2607
39
 0
62
  5
 0
LINE
8
default
6
CONTINUOUS
10
      348.1955
20
     -345.2607
11
      380.8303
21
     -349.4195
39
 0
62
  5
 0
LINE
8
default
6
CONTINUOUS
10
     -348.1955
20
     -345.2607
11
     -380.8303
21
     -349.4195
39
 0
62
  5
 0
LINE
8
default
6
CONTINUOUS
10
      380.8303
20
     -349.4195
11
      412.0622
21
     -355.5545
39
 0
62
  5
 0
LINE
8
default
6
CONTINUOUS
10
     -380.8303
20
     -349.4195
11
     -412.0622
21
     -355.5545
39
 0
62
  5
 0
LINE
8
default
6
CONTINUOUS
10
      412.0622
20
     -355.5545
11
      437.7071
21
     -348.2741
39
 0
62
  5
 0
LINE
8
default
6
CONTINUOUS
10
     -412.0622
20
     -355.5545
11
     -437.7071
21
     -348.2741
39
 0
62
  5
 0
LINE
8
default
6
CONTINUOUS
10
      437.7071
20
     -348.2741
11
      469.3109
21
     -341.4434
39
 0
62
  5
 0
LINE
8
default
6
CONTINUOUS
10
     -437.7071
20
     -348.2741
11
     -469.3109
21
     -341.4434
39
 0
62
  5
 0
LINE
8
default
6
CONTINUOUS
10
      469.3109
20
     -341.4434
11
      470.7042
21
     -300.6321
39
 0
62
  5
 0
LINE
8
default
6
CONTINUOUS
10
     -469.3109
20
     -341.4434
11
     -470.7042
21
     -300.6321
39
 0
62
  5
 0
LINE
8
default
6
CONTINUOUS
10
      470.7042
20
     -300.6321
11
      472.4804
21
     -296.0436
39
 0
62
  5
 0
LINE
8
default
6
CONTINUOUS
10
     -470.7042
20
     -300.6321
11
     -472.4804
21
     -296.0436
39
 0
62
  5
 0
LINE
8
default
6
CONTINUOUS
10
       27.8372
20
     -255.4240
11
       27.8372
21
      -14.5310
39
 0
62
 30
 0
LINE
8
default
6
CONTINUOUS
10
      -27.8372
20
     -255.4240
11
      -27.8372
21
      -14.5310
39
 0
62
 30
 0
LINE
8
default
6
CONTINUOUS
10
      110.5841
20
     -278.6915
11
      110.5841
21
      -60.1892
39
 0
62
 30
 0
LINE
8
default
6
CONTINUOUS
10
     -110.5841
20
     -278.6915
11
     -110.5841
21
      -60.1892
39
 0
62
 30
 0
LINE
8
default
6
CONTINUOUS
10
      191.2080
20
     -302.0708
11
      191.2080
21
     -108.3898
39
 0
62
 30
 0
LINE
8
default
6
CONTINUOUS
10
     -191.2080
20
     -302.0708
11
     -191.2080
21
     -108.3898
39
 0
62
 30
 0
LINE
8
default
6
CONTINUOUS
10
      270.3629
20
     -325.4854
11
      270.3629
21
     -159.4432
39
 0
62
 30
 0
LINE
8
default
6
CONTINUOUS
10
     -270.3629
20
     -325.4854
11
     -270.3629
21
     -159.4432
39
 0
62
 30
 0
LINE
8
default
6
CONTINUOUS
10
      348.1955
20
     -345.2607
11
      339.8616
21
     -205.8067
39
 0
62
 30
 0
LINE
8
default
6
CONTINUOUS
10
     -348.1955
20
     -345.2607
11
     -339.8616
21
     -205.8067
39
 0
62
 30
 0
LINE
8
default
6
CONTINUOUS
10
      412.0622
20
     -355.5545
11
      400.1001
21
     -246.5050
39
 0
62
 30
 0
LINE
8
default
6
CONTINUOUS
10
     -412.0622
20
     -355.5545
11
     -400.1001
21
     -246.5050
39
 0
62
 30
 0
LINE
8
default
6
CONTINUOUS
10
      469.3109
20
     -341.4434
11
      429.2393
21
     -266.3644
39
 0
62
 30
 0
LINE
8
default
6
CONTINUOUS
10
     -469.3109
20
     -341.4434
11
     -429.2393
21
     -266.3644
39
 0
62
 30
 0
LINE
8
default
6
CONTINUOUS
10
      447.7603
20
     -279.0460
11
      407.0345
21
     -338.4212
39
 0
62
  3
 0
LINE
8
default
6
CONTINUOUS
10
     -447.7603
20
     -279.0460
11
     -407.0345
21
     -338.4212
39
 0
62
  3
 0
LINE
8
default
6
CONTINUOUS
10
       -5.0000
20
     -179.0000
11
        5.0000
21
     -179.0000
39
 0
62
  1
 0
LINE
8
default
6
CONTINUOUS
10
       -5.0000
20
     -149.0000
11
        5.0000
21
     -149.0000
39
 0
62
  4
 0
LINE
8
default
6
CONTINUOUS
10
       -5.0000
20
     -286.0000
11
        5.0000
21
     -286.0000
39
 0
62
  3
 0
TEXT
5
10A38
8
0
6
CONTINUOUS
62
  7
10
     -337.10
20
       -0.00
30
        0.00
40
        8.00
 1
LEHG-0.11                                         
50
        0.00
0
TEXT
5
10A38
8
0
6
CONTINUOUS
62
  7
10
     -337.10
20
      -14.00
30
        0.00
40
        8.00
 1
Laboratori d'envol                                
50
        0.00
0
TEXT
5
10A38
8
0
6
CONTINUOUS
62
  7
10
     -337.10
20
      -28.00
30
        0.00
40
        8.00
 1
gnuFloater                                        
50
        0.00
0
TEXT
5
10A38
8
0
6
CONTINUOUS
62
  7
10
     -337.10
20
      -42.00
30
        0.00
40
        8.00
 1
Angle 119.3 deg                                   
50
        0.00
0
TEXT
5
10A38
8
0
6
CONTINUOUS
62
  7
10
     -337.10
20
      -56.00
30
        0.00
40
        8.00
 1
Span  9.45 m                                      
50
        0.00
0
TEXT
5
10A38
8
0
6
CONTINUOUS
62
  7
10
     -337.10
20
      -70.00
30
        0.00
40
        8.00
 1
AR    5.59                                        
50
        0.00
0
TEXT
5
10A38
8
0
6
CONTINUOUS
62
  7
10
     -337.10
20
      -84.00
30
        0.00
40
        8.00
 1
Area 15.97 m2                                     
50
        0.00
0
ENDSEC
0
EOF
